PrimaNota.ru - самый крупный в мире бесплатный архив песенных текстов, аккордов, табулатур и нот


Cj Ramone - Low On Ammo - бас-таба, видео

Регистрация Запомнить меня
Войти через:  Facebook Google Twitter Vk Yandex Mail.ru

Cj Ramone - Low On Ammo - бас-таба, видео

Печатать
Просмотров: 75
Intro                                                                 x1
G-----------------------------------------------------------------------|
D-----------------------------------------------------------------------|
A----------5-5-5-5--7-7-7-7--2-2-2-2--3-3-3-3--5-5-5-5----------5-5-5-5-|
E-3-3-3-3----------------------------------------------3-3-3-3----------|


Verse 1                                                               x3
G-----------------------------------------------------------------------|
D-----------------------------------------------------------------------|
A----------5-5-5-5--7-7-7-7--2-2-2-2--3-3-3-3-----------5-5-5-5-5-5-5-5-|
E-3-3-3-3--------------------------------------3-3-3-3------------------|

G-----------------------------------------------------------------------|
D-----------------------------------------------------------------------|
A----------5-5-5-5--7-7-7-7--2-2-2-2--3-3-3-3-----------5-5-5-5-5-3-2-0-|
E-3-3-3-3--------------------------------------3-3-3-3------------------|


Chorus
G-----------------------------------------------------------------------|
D----------------------------------------------------------------4-5-7--|
A----------5-5-5-5--7-7-7-7--2-2-2-2--3-3-3-3-----------5-5-5-5-5-------|
E-3-3-3-3--------------------------------------3-3-3-3------------------|

G------------------------------------------------------------------------|
D------------------------------------------------------------------------|
A----------5-5-5-5--7-7-7-7--2-2-2-2--3-3-3-3-----------5-5-5-5----------|
E-3-3-3-3--------------------------------------3-3-3-3-----------3-3-3-3-|


Verse 2
G-----------------------------------------------------------------------|
D-----------------------------------------------------------------------|
A----------5-5-5-5--7-7-7-7--2-2-2-2--3-3-3-3-----------5-5-5-5-5-5-5-5-|
E-3-3-3-3--------------------------------------3-3-3-3------------------|

G---------------------------------------------------------------------------|
D--------------------------------------------------------4-7--4-7--4-7--4-7-|
A----------5-5-5-5--7-7-7-7--2-2-2-2--3-3-3-3-----------5----5----5----5----|
E-3-3-3-3--------------------------------------3-3-3-3----------------------|

G-----------------------------------------------------------------------|
D-----------------------------------------------------------------------|
A----------5-5-5-5--7-7-7-7--2-2-2-2--3-3-3-3-----------5-5-5-5-5-5-5-5-|
E-3-3-3-3--------------------------------------3-3-3-3------------------|

G-----------------------------------------------------------------------|
D-----------------------------------------------------------------------|
A----------5-5-5-5--7-7-7-7--2-2-2-2--3-3-3-3-----------5-5-5-5-5-3-2-0-|
E-3-3-3-3--------------------------------------3-3-3-3------------------|


Chorus
G-----------------------------------------------------------------------|
D----------------------------------------------------------------4-5-7--|
A----------5-5-5-5--7-7-7-7--2-2-2-2--3-3-3-3-----------5-5-5-5-5-------|
E-3-3-3-3--------------------------------------3-3-3-3------------------|

G------------------------------------------------------------------------|
D------------------------------------------------------------------------|
A----------5-5-5-5--7-7-7-7--2-2-2-2--3-3-3-3-----------5-5-5-5----------|
E-3-3-3-3--------------------------------------3-3-3-3-----------3-3-3-3-|


Bridge                          x2
G---------------------------------|-------------------------------------------------------------|
D---------------------------------|-------------------------------------------------------------|
A-3-3-3-3-3-3-3-3-----------------|-3-3-3-3-3-3-3-3-3--------------------3-3-3-3-3-3-3-3--5-----|
E-----------------3-3-3-3-3-3-3-3-|--------------------3-3-3-3--0-0-0-0-------------------------|


Solo
G---------------------------------------------------------------------------|
D--------------------------------------------------------4-7--4-7--4-7--4-7-|
A----------5-5-5-5--7-7-7-7--2-2-2-2--3-3-3-3-----------5----5----5----5----|
E-3-3-3-3--------------------------------------3-3-3-3----------------------|

G-----------------------------------------------------------------------|
D-----------------------------------------------------------------------|
A----------5-5-5-5--7-7-7-7--2-2-2-2--3-3-3-3-----------5-5-5-5-5-3-2-0-|
E-3-3-3-3--------------------------------------3-3-3-3------------------|


Chorus
G-----------------------------------------------------------------------|
D-----------------------------------------------------------------------|
A----------5-5-5-5--7-7-7-7--2-2-2-2--3-3-3-3-----------5-5-5-5-5-5-5-5-|
E-3-3-3-3--------------------------------------3-3-3-3------------------|

G---------------------------------------------------------------------------|
D---------------------------------------------------------------------------|
A----------5-5-5-5--7-7-7-7--2-2-2-2--3-3-3-3-----------5-5-5-5---------234-|
E-3-3-3-3--------------------------------------3-3-3-3-----------3-3-3-3----|

G------------------------------------------------------------------------|
D------------------------------------------------------------------------|
A-3-3-3-3-----------5-5-5-5---------234--3-3-3-3-----------5-5-5-5-------|
E----------3-3-3-3-----------3-3-3-3--------------3-3-3-3-----------3----|
Добавлено: 05.07.2015
Другие материалы по этой песне:
  • Аккорды и текст

Страница создана 05.07.2015
http://primanota.ru/cj-ramone/low-on-ammo-chords.htm
Привет, Гость.
Предлагаем пройти революционный курс по гитаре.
Подарок от PrimaNota.Ru, забирай!