PrimaNota.ru - самый крупный в мире бесплатный архив песенных текстов, аккордов, табулатур и нот


Cj Ramone - King Cobra - бас-таба, видео

Регистрация Запомнить меня
Войти через:  Facebook Google Twitter Vk Yandex Mail.ru

Cj Ramone - King Cobra - бас-таба, видео

Печатать
Просмотров: 89
Intro
G-----------------------------------------------------------------|
D-----------------------------------------------------------------|
A-----------------0-0-0-0-0-0-0-0-2-2-2-2-2-2-2-2-5-5-5-5-5-5-5-5-|
E-2-2-2-2-2-2-2-2-------------------------------------------------|


Chorus                          x8
G---------------------------------|
D---------------------------------|
A---------5-5-5-5---------2-0-2-0-|
E-2-2-2-2---------5-5-5-5---------|


Verse                                                   x4
G---------------------------------------------------------|
D---------------------------------------------------------|
A---------------------------------5-5-2-2-----------------|
E-2-2-2-2-2-2-2-2-2-2-2-2-2-2-2-2---------2-2-2-2-2-2-2-2-|


PreChorus
G---------------------------------|
D---------------------------------|
A-4-4-4-4-5-5-5-5-4-4-4-4-7-7-7-7-|
E---------------------------------|


You guys can figure out the order, the verse is played behind the solo. 
Добавлено: 02.06.2015
Другие материалы по этой песне:
  • Аккорды и текст

Страница создана 02.06.2015
http://primanota.ru/cj-ramone/king-cobra-chords.htm
Привет, Гость.
Предлагаем пройти революционный курс по гитаре.
Подарок от PrimaNota.Ru, забирай!