PrimaNota.ru - самый крупный в мире бесплатный архив песенных текстов, аккордов, табулатур и нот


Civil Civic - Airspray - бас-таба, видео

Регистрация Запомнить меня
Войти через:  Facebook Google Twitter Vk Yandex Mail.ru

Civil Civic - Airspray - бас-таба, видео

Печатать
Просмотров: 23
Новый альбом группы 'Черный Кузнец' по культовому сериалу 'Сверхъестественное'!
Be careful to catch the rythm, the basslines are really fast ! 
I would advise you to use a pick for a better sharp sound as played in this song

Bass starts @ 00:14

[Intro]  x2
G|-------------------------------------------------------------------------------------|
D|-----3-3h5-6-6-6p5p3-3-3-3-----------------------------------------------------------|
A|--6-6----------------------3-6-6-3--3-3-3-3-3-1-3-3-1--------------------------------|
E|-------------------------------------------------------------------------------------|

[Verse] x2
G|---------------------------------------------------------------------------|
D|--------------5-3--3-3h5h6p5-----------------------------------------------|
A|--3h-3h-3h5h6------------------3-3h5h6p5--3p0--1-3-1-0h1-------------------|
E|---------------------------------------------------------------------------|

[Pre-Verse]
G|------------------------------------------5--------------------------------|
D|----6--3-66-3-5---------3---33--------------1h3h5h6p5--8h6p8--6h8h10-------|
A|--3-------------------3---3---3-1-------3----------------------------------|
E|---------------------------------------------------------------------------|

G|---------------------------------------------------------------------------|
D|----6--3-66-3-5---------3~-----------\10h13p10-6h8-------------------------|
A|--3-------------------3----------------------------------------------------|
E|---------------------------------------------------------------------------|

G|------------------------------------------------------------------------------------|
D|------------------------------------------------------------------------------------|
A|--3--3-3\5--5-5\6--6-6\8h10--8--8-8\10-10-10\11--13-13------------------------------|
E|-------------------------------------------------------11---------------------------|

[Chorus] x2
G|-------------------------------------------------------------------------------------|
D|-----3-3h5-6-6-6p5p3-3-3-3-----------------------------------------------------------|
A|--6-6----------------------3-6-6-3--3-3-3-3-3-1-3-3-1--------------------------------|
E|-------------------------------------------------------------------------------------|

[Verse] x2
G|---------------------------------------------------------------------------|
D|--------------5-3--3-3h5h6p5-----------------------------------------------|
A|--3h-3h-3h5h6------------------3-3h5h6p5--3p0--1-3-1-0h1-------------------|
E|---------------------------------------------------------------------------|

[Pre-Verse]
G|--------------------------------------------5--------------------------------|
D|----6--3-6-6-3-5---------3---3-3--------------1h3h5h6p5--8h6p8--6h8h10-------|
A|--3--------------------3---3----3-1-------3----------------------------------|
E|-----------------------------------------------------------------------------|

G|----------------------------------------------------------------------------|
D|----6--3-6-6-3-5---------3~-----------\10h13p10-6h8-------------------------|
A|--3--------------------3----------------------------------------------------|
E|----------------------------------------------------------------------------|

G|-------------------------------------------------------------------------------|
D|-------------------------------------------------------------------------------|
A|--3-3-3\5-5-5\6-6-6\8h10--8-8-8\10-1010\11--13-13------------------------------|
E|--------------------------------------------------11---------------------------|

[Chorus] x2
G|-------------------------------------------------------------------------------------|
D|-----3-3h5-6-6-6p5p3-3-3-3-----------------------------------------------------------|
A|--6-6----------------------3-6-6-3--3-3-3-3-3-1-3-3-1--------------------------------|
E|-------------------------------------------------------------------------------------|

************************************

| h  Hammer-on
| p  Pull-off
| \  Slide down
| ~  Vibrato

************************************
Добавлено: 13.02.2018
Другие материалы по этой песне:
  • Аккорды и текст

Страница создана 13.02.2018
http://primanota.ru/civil-civic/airspray-chords.htm
Привет, Гость.
Предлагаем пройти революционный курс по гитаре.
Подарок от PrimaNota.Ru, забирай!