PrimaNota.ru - самый крупный в мире бесплатный архив песенных текстов, аккордов, табулатур и нот


City - Am Fenster Traum - таба, видео

Регистрация Запомнить меня
Войти через:  Facebook Google Twitter Vk Yandex Mail.ru

City - Am Fenster Traum - таба, видео

Печатать
Просмотров: 93
Уроки эстрадного вокала в Санкт-Петербурге
-------------------------------------------------------------------------------
			     Am Fenster (Traum) - City
-------------------------------------------------------------------------------

performed: 1977, East-Germany
tabbed by: Tino Knaak
e-mail: tknaak@directbox.com

tuning: standard (EADGBe)

guitar: steel-guitar, most likely 12-string-guitar



              (gently)
   (let ring) (let ring)                                     . (let ring)
e|--0---------14------------------------------------------------0----------|
B|--0---------12----------0--1--3-----5--5--3--0----0--1--3--5--0----------|
G|--0--------- x----------0--2--4-----5--5--4-(4)-0-0--2--4--5--0----------|
D|--2---------12------------------------------------------------2----------|
A|--x----------x-------------0--2-----3--3--2-(2)------0--2--3--2----------|
E|--0---------12----------3-------------------------3-----------0----------|



e|---2p0-3p0-2p0-3p0-2p0-------0-----2-----5-----0-----0-----2-----5-----0-|
B|---------------------------5-----5-----5-----5-----5-----5-----5-----5---|
G|-------------------------------------------------------------------------|
D|--2---2---2---2---2------0-----0-----0-----0-----0-----0-----0-----0-----|
A|-------------------------------------------------------------------------|
E|-------------------------------------------------------------------------|


          3 times (fade out)

e|------0-----2-----3-----2-|
B|----2-----2-----2-----2---|
G|--------------------------|
D|--------------------------|
A|--3-----3-----3-----3-----|
E|--------------------------|


             .  (let ring)          .
e|------------------------------------|
B|--0--1--3--5--0----------0--1--3--5-|
G|--0--2--4--5--x----------0--2--4--5-|
D|--------------5---------------------|
A|-----0--2--3--5-------------0--2--3-|
E|--3-----------3----------3----------|


    (let ring)                                                         .
e|--0---------------------0h2------------------------0-----------------0--2-2-0-|
B|--0----0--------------3-----3-----------------1-------1-----------1-----3-3-0-|
G|--0-------0--------2-----------2-----------0-------------0-----0--------2-2---|
D|--2----------0--0-----------------0-----2-------------------2-----------0-0---|
A|--2----------------------------------3--------------------------------------2-|
E|--0---------------------------------------------------------------------------|


                               repeat several times in variations, including second guitar
                                                                                 .
e|-----------0----0----------------2h3p2-----------------------0-----------------0--2-2-0-|
B|-----------0-------0-----------3--------3---------------1-------1-----------1--1--3-3-0-|
G|--------0-------------0-----2--------------2---------0-------------0-----0--------2-2---|
D|-----2-------------------0------------------------2-------------------------------0-0---|
A|--------------------------------------------0h2h3---------------------3---------------2-|
E|--0-------------------------------------------------------------------------------------|


************************************
| .   staccato
| /   slide up
| \   slide down
| h   hammer-on
| p   pull-off
| ~   vibrato
| +   harmonic
| x   Mute note
| b   Bend
| pb  Pre-bend
| br  Bend release
| pbr Pre-bend release
| brb Bend release bend

************************************
Добавлено: 14.05.2016
Другие материалы по этой песне:
  • Аккорды и текст

Страница создана 14.05.2016
http://primanota.ru/city/am-fenster-traum-chords.htm
Привет, Гость.
Предлагаем пройти революционный курс по гитаре.
Подарок от PrimaNota.Ru, забирай!