PrimaNota.ru - самый крупный в мире бесплатный архив песенных текстов, аккордов, табулатур и нот


City Of Caterpillar - Minute-hour-day-week-month-year-the Faiths In My Chest - таба, видео

Регистрация Запомнить меня
Войти через:  Facebook Google Twitter Vk Yandex Mail.ru

City Of Caterpillar - Minute-hour-day-week-month-year-the Faiths In My Chest - таба, видео

Печатать
Просмотров: 130
00:00
|--------------------------|--------------------------|
|--------------------------|--------------------------|
|------10----------10------|------10----------10------|
|--------------12------12--|--------------12------12--|
|--10------10--------------|--10------10--------------|
|--------------------------|--------------------------|

|--------------------------|--------------------------|
|--------------------------|--------------------------|
|------10----------10------|------10----------10------|
|--------------12------12--|--------------12------12--|
|----------10--------------|----------10--------------|
|--11----------------------|--11----------------------|

|-----------------------------------------------------|
|-----------------------------------------------------|
|-----------------------------------------------------|
|---------------------------10------12~~~~--15----12--|
|--10----------12--13-----------13--------------------|
|-----------------------------------------------------|

|------------------------------------------------------------|
|------------------------------------------------------------|
|--14b----r---14-14-12---12----10----10----8-----------------|
|---------------------------12----------------10--10--10s8---|
|------------------------------------------------------------|
|------------------------------------------------------------|
|------------------------------------------------------------|

2:40
|-15----------15----------13----------13------------------|
|-----11----------11----------13----------13--------------|
|---------12----------14----------15----------15----------|
|---------------------------------------------------------|
|---------------------------------------------------------|
|---------------------------------------------------------|

|-13----------13----------13----------13------------------|
|-----11----------11----------11----------11--------------|
|---------12----------12----------12----------12----------|
|---------------------------------------------------------|
|---------------------------------------------------------|
|---------------------------------------------------------|

|-18----------18----------18----------17------------------|
|-----15----------15----------15----------15--------------|
|---------15----------15----------15----------15----------|
|---------------------------------------------------------|
|---------------------------------------------------------|
|---------------------------------------------------------|

|-20----------20----------20----------20------------------|
|-----16----------16----------16----------16--------------|
|---------19----------19----------19----------19----------|
|---------------------------------------------------------|
|---------------------------------------------------------|
|---------------------------------------------------------|

|----------------------------------------|
|----------------------------------------|
|----------------------------------------|
|-----------12----12------------12----12-|
|-10----10------------10----10-----------|
|----------------------------------------|

|----------------------------------------|
|----------------------------------------|
|----------------------------------------|
|-----------12----12------------12----12-|
|----------------------------------------|
|-11----11------------11----11-----------|
5:12
|-------|
|-------|
|-10~---|
|-12~---|
|-10~---|
|-11~---|

|------------------------------------|
|------------------------------------|
|-7--5--3--7--5--3--1010101010-77777-|
|------------------------------------|
|-5--3--1--5--3--1--8-8-8-8-8--55555-|
|------------------------------------|

|----------------------------------------------|
|----------------------------------------------|
|-7s8-8-8-8--8s7-7-7-7-------------------------|
|------------------------7-7-7-7-7--7s8-8-8-8--|
|-5s6-6-6-6--6s5-5-5-5-------------------------|
|------------------------5-5-5-5-5--5s6-6-6-6--|

6:05
|------------------------------|
|------------------------------|
|------------------------------|
|------------------------------|
|-5h8--------------------------|
|-------6----6-6s10-10-10-10-8-|

|--------------------------|
|--------------------------|
|--------------------------|
|--------------------------|
|-5h8----------------------|
|-------6----6-6s3-3-3-3-3-|

|------------------------------|
|------------------------------|
|------------------------------|
|------------------------------|
|-5h8--------------------------|
|-------6----6-6s10-10-10-10-8-|

|-------------------------|
|-------------------------|
|-------------------------|
|-------------------------|
|-------------------------|
|-6p3-3-3---3-3-1-1-1-1-1-|

|-------------|-------------|
|-------------|-------------|
|-------------|-------------|
|-------------|-------------|
|-------------|-------------|
|-3-3-3-3-3-3-|-3-3-3-3-3-3-|
  . . . . . .   . . . . . .

|-------------|-------------|
|-------------|-------------|
|-------------|-------------|
|-------------|-------------|
|-------------|-------------|
|-6-6-6-6-6-6-|-6-6-6-6-6-6-|
  . . . . . .   . . . . . .

|-------------|-------------|
|-------------|-------------|
|-------------|-------------|
|-------------|-------------|
|-------------|-------------|
|-3-3-3-3-3-3-|-3-3-3-3-3-3-|
  . . . . . .   . . . . . .

|-------------|-------------|
|-------------|-------------|
|-------------|-------------|
|-------------|-8---8---8---|
|-------------|-8---8---8---|
|-6-6-6-6-6-6-|-6---6---6---|
  . . . . . .  

|-------------|-------------|
|-------------|-------------|
|-------------|-------------|
|-------------|-------------|
|-------------|-------------|
|-3-3-3-3-3-3-|-3-3-3-3-3-3-|
  . . . . . .   . . . . . .

|-------------|--------------|
|-------------|--------------|
|-------------|--------------|
|-------------|--------------|
|-------------|--------------|
|-6-6-6-6-6-6-|-101010101010-|
  . . . . . .   . . . . . .

|--------------|--------------|
|--------------|--------------|
|--------------|--------------|
|--------------|--------------|
|--------------|--------------|
|-101010101010-|-101010101010-|
  . . . . . .    . . . . . .

|--------------|--------------|
|--------------|--------------|
|--------------|--------------|
|-121212121212-|-121212121212-|
|--------------|--------------|
|-101010101010-|-101010101010-|

|-------------|-------------|
|-------------|-------------|
|-------------|-------------|
|-55-5-55-7-7-|-55-5-55-7-7-|
|-------------|-------------|
|-33-3-33-5-5-|-33-3-33-5-5-|

|-------------|-----------------|
|-------------|-----------------|
|-------------|-----------------|
|-88-8-88-8-8-|-8s1010-10s12-12-|
|-------------|-----------------|
|-66-6-66-6-6-|-6s8-8--8s-10-10-|

end
|----------------|
|----------------|
|----------------|
|----------------|
|----------------|
|-1~~~~~--2~~~~~-|
Добавлено: 15.07.2012
Другие материалы по этой песне:
  • Аккорды и текст

Страница создана 15.07.2012
http://primanota.ru/city-of-caterpillar/minute-hour-day-week-month-year-the-faiths-in-my-chest-chords.htm
Привет, Гость.
Предлагаем пройти революционный курс по гитаре.
Подарок от PrimaNota.Ru, забирай!