PrimaNota.ru - самый крупный в мире бесплатный архив песенных текстов, аккордов, табулатур и нот


City Of Caterpillar - And Youre Wondering How A Top Floor Could Replace Heaven - таба, видео

Регистрация Запомнить меня
Войти через:  Facebook Google Twitter Vk Yandex Mail.ru

City Of Caterpillar - And Youre Wondering How A Top Floor Could Replace Heaven - таба, видео

Печатать
Просмотров: 114
============And You're Wondering How a Top Floor Could Replace Heaven============

To properly play this song you're going to need another guitarist and a delay pedal (one of the guitarists used
a Guyatone digital delay, which is basically a Boss DD3)

========Part A========

==Guitar 1==

E|--12-12-12--|  |--12-12-12--|
B|--15-15-14--|x2|--15-15-13--|x2
G|------------|  |------------|
D|------------|  |------------|
A|------------|  |------------|
E|------------|  |------------|

==Guitar 2==

E|------|  |-----|  |-----|  |-----|  |-----|  |-----|  |-----|  |------|
B|------|x3|-----|x3|-----|x3|-----|x3|-----|x3|-----|x3|-----|x3|------|x3
G|------|  |-----|  |-----|  |-----|  |-----|  |-----|  |-----|  |------|
D|--12--|  |--5--|  |--7--|  |--5--|  |--8--|  |--5--|  |--7--|  |--10--|
A|--x---|  |--x--|  |--x--|  |--x--|  |--x--|  |--x--|  |--x--|  |--x---|
E|--10--|  |--3--|  |--5--|  |--3--|  |--6--|  |--3--|  |--5--|  |--8---|
    *         *        *        *        *        *        *        * 

====Part B====

==Guitar 1==

E|--------------------|
B|--------------------|
G|--------------------|
D|--7-7-7--7-10--7-9--|
A|--------------------|
E|--------------------|

==Guitar 2==

E|------|  |-----|  |-----|  |-----|  |-----|  |-----|  |-----|  |------|
B|------|x3|-----|x3|-----|x3|-----|x3|-----|x3|-----|x3|-----|x3|------|x3
G|------|  |-----|  |-----|  |-----|  |-----|  |-----|  |-----|  |------|
D|--12--|  |--5--|  |--7--|  |--5--|  |--8--|  |--5--|  |--7--|  |--10--|
A|--x---|  |--x--|  |--x--|  |--x--|  |--x--|  |--x--|  |--x--|  |--x---|
E|--10--|  |--3--|  |--5--|  |--3--|  |--6--|  |--3--|  |--5--|  |--8---|

====Part C====

==Guitars 1+2==

E|--------------------|
B|--------------------|
G|--------------------|
D|--7!7!7!-7!7!-7!7!--|
A|--x-x-x--x-x--x-x---|
E|--5!5!5!-5!5!-5!5!--|

E|------|
B|------|x12
G|--15--|
D|--x---|
A|--13--|
E|------|

====Part D====

==Guitar 1==

E|------------------|
B|------------------|
G|--10b-----7--9-9--|
D|--x---7b--x--x-x--|
A|--8b--x---5--7-7--|
E|------5b----------|

====Part E====

==Guitar 1==

E|---------------------------------------|
B|---------------------------------------|
G|--10br-7br-----------------------------|
D|--x----x----8-8-8-8-8-8--5-5-5--8-8-8--|
A|--8br--5br--x-x-x-x-x-x--x-x-x--x-x-x--|
E|------------6-6-6-6-6-6--3-3-3--6-6-6--|

====Part F====

==Guitar 1==

E|--------------------------------------------x-x-x-x--|
B|--------------------------------------------x-x-x-x--|
G|-8-8-8-8-8-8--10br-7br----------------------x-x-x-x--|
D|-x-x-x-x-x-x--x----x----8-8-8-8-8-8--5\\\\--x-x-x-x--|
A|-6-6-6-6-6-6--8br--5br--x-x-x-x-x-x--x------x-x-x-x--|
E|------------------------6-6-6-6-6-6--3\\\\--x-x-x-x--|

E|---------------------------------------------------|
B|---------------------------------------------------|
G|-8-8-8-8-8-8--10br-7br-----------------------------|
D|-x-x-x-x-x-x--x----x----8-8-8-8-8-8--5-5-5--8-8-8--|
A|-6-6-6-6-6-6--8br--5br--x-x-x-x-x-x--x-x-x--x-x-x--|
E|------------------------6-6-6-6-6-6--3-3-3--6-6-6--|

====Part G====

==Guitar 1==

E|-------------------------x-x-x-x--|
B|-------------------------x-x-x-x--|
G|-10-10-10--6-6-6---------x-x-x-x--|
D|-x--x--x---x-x-x--5\\\\--x-x-x-x--|
A|-8--8--8---4-4-4--x------x-x-x-x--|
E|------------------3\\\\--x-x-x-x--|

====Part H====

==Guitar 1==

E|----------------------------------------------------|
B|----------------------------------------------------|
G|--10--10-10--x--6--6-6--x--12--12-12--x--9--9-9--x--|
D|--x---x--x---x--x--x-x--x--x---x--x---x--x--x-x--x--|
A|--8---8--8---x--4--4-4--x--10--10-10--x--7--7-7--x--|
E|----------------------------------------------------|

E|-------------------------------------------------------------|
B|-------------------------------------------------------------|
G|--10--10-10--x--6--6-6--x--12--12-12-12-12--14-14-14--12-12--|
D|--x---x--x---x--x--x-x--x--x---x--x--x--x---x--x--x---x--x---|
A|--8---8--8---x--4--4-4--x--10--10-10-10-10--10-10-10--10-10--|
E|-------------------------------------------------------------|

==Guitar 2==

E|----------------------------------------------|
B|----------------------------------------------|
G|----------------------------------------------|
D|--7p5h7p5----5p3h5p3----8p7h8p7----10p8h10p8--|
A|----------------------------------------------|
E|----------------------------------------------|

THEN guitar 1 switches to:

E|----------------------------------------------------|
B|----------------------------------------------------|
G|--10--10-10--x--6--6-6--x--12--12-12--x--9--9-9--x--|
D|--x---x--x---x--x--x-x--x--x---x--x---x--x--x-x--x--|
A|--8---8--8---x--4--4-4--x--10--10-10--x--7--7-7--x--|
E|----------------------------------------------------|

E|------------------------------------------------------|
B|------------------------------------------------------|
G|--10--10-10--x--6--6-6--x--9--9-9-9-9--10-10-10--9-9--|
D|--x---x--x---x--x--x-x--x--x--x-x-x-x--x--x--x---x-x--|
A|--8---8--8---x--4--4-4--x--7--7-7-7-7--8--8--8---7-7--|
E|------------------------------------------------------|

====Part I====

==Guitar 1==

E|--------------------------------------------|
B|--------------------------------------------|
G|--10-10-10--6-6-6----9!9!-9!9!-10!10!-9!9!--|
D|--x--x--x---x-x-x----x-x--x-x--x--x---x-x---|
A|--8--8--8---4-4-4----7!7!-7!7!-8!-8!--7!7!--|
E|--------------------------------------------|

E|----------------------------------------------|
B|----------------------------------------------|
G|--10-10-10--6-6-6----9!9!-9!9!-14!14!-12!12!--|
D|--x--x--x---x-x-x----x-x--x-x--x--x---x--x----|
A|--8--8--8---4-4-4----7!7!-7!7!-12!12!-10!10!--|
E|----------------------------------------------|

==Guitar 2==

E|---------------------------|
B|---------------------------|
G|--14b--14b--15b--17b--15b--|
D|--x----x----x----x----x----|
A|--12b--12b--13b--15b--13b--|
E|---------------------------|

====Part J====

==Guitar 2==

E|-------|
B|-------|x4
G|--10b--|
D|--x----|
A|--8b---|
E|-------|

====Part K====

==Guitar 1==

E|---------|  |---------|
B|---------|x4|---------|x4
G|---------|  |---------|
D|----7----|  |----7----|
A|------5--|  |------8--|
E|--6------|  |--5------|

==Guitar 2==

E|-------------------------|
B|--11--10--11/13--11--6~--|
G|-------------------------|
D|-------------------------|
A|-------------------------|
E|-------------------------|

E|------------------------------|-------------10-----------|----------------------|
B|--18t-17t-11t-10t-11t-10t-6t--|--18t-17t-11----11-10-6t--|--11t-10t-11t-10t-6t--|
G|------------------------------|--------------------------|----------------------|
D|------------------------------|--------------------------|----------------------|
A|------------------------------|--------------------------|----------------------|
E|------------------------------|--------------------------|----------------------|

E|------------------------------------------------------|  |--------------------|------------------|
B|--18t-17t-18t-17t-11t-10t-11t-10t-11t-10t-11t-10t-6t--|x2|--6bbbbbb8rrrrrr6t--|--11-10-11-10-6~--|
G|------------------------------------------------------|  |--------------------|------------------|
D|------------------------------------------------------|  |--------------------|------------------|
A|------------------------------------------------------|  |--------------------|------------------|
E|------------------------------------------------------|  |--------------------|------------------|

NOTE: I haven't shown the exact number of times notes are tremolo picked. 
Use the song as a guide for the changes

============Structure============

WIP (parts are played in alphabetical order but I haven't noted the repetitions yet)

============Key============

/ - slide 
x - mute string
b - bend
~ - sustain note
h - hammer on
p - pull off
t - tremolo pick
! - staccato 

============Credits============

.Song by City of Caterpillar 
.Tabbed by Patrick Johnston
Добавлено: 02.09.2015
Другие материалы по этой песне:
  • Аккорды и текст

Страница создана 02.09.2015
http://primanota.ru/city-of-caterpillar/and-youre-wondering-how-a-top-floor-could-replace-heaven-chords.htm
Привет, Гость.
Предлагаем пройти революционный курс по гитаре.
Подарок от PrimaNota.Ru, забирай!