PrimaNota.ru - самый крупный в мире бесплатный архив песенных текстов, аккордов, табулатур и нот


City Lights And Shorelines - Strawberry Pancake Breakfast - таба, видео

Регистрация Запомнить меня
Войти через:  Facebook Google Twitter Vk Yandex Mail.ru

City Lights And Shorelines - Strawberry Pancake Breakfast - таба, видео

Печатать
Просмотров: 70
-----------------------------------------------------------------------------
             Stawberry Pancake Breakfast! - City Lights & Shorelines
-----------------------------------------------------------------------------
Tabbed by: Hunter Slack
E-mail: HunterPslack@gmail.com

Tuning: Eb Standard

Intro:
eb|-------------------------------------------------------------------------|
Bb|-------------------------------------------------------------------------|
Gb|-------9------------9------------4-----------4---------------------------|
Db|---9-----7------9-----9------2-----2-----2-----2-------------------------|
Ab|-7---7--------6---6--------0---0-------0---0-----------------------------|
Eb|-------------------------------------------------------------------------|

eb|---------------------------------------0~--------------------------------|
Bb|---------------------------------------0~--------------------------------|
Gb|-------9------------9------------4-----4~--------------------------------|
Db|---9-----7------9-----9------2-----2---2~--------------------------------|
Ab|-7---7--------6---6--------0---0-------0~--------------------------------|
Eb|-------------------------------------------------------------------------|

Intro (cont.)
eb|-0----------0----------0---------0---------0---------0-------------------|
Bb|-0--(X16)---0--(X16)---0--(X8)---0--(X8)---0--(X8)---0--(X8)-------------|
Gb|-9----------9----------4---------6---------4---------4-------------------|
Db|-9----------9----------2---------6---------2---------4-------------------|
Ab|-7----------6----------0---------4---------0---------2-------------------|
Eb|-------------------------------------------------------------------------|     X2

Verse
eb|-0----------0----------0-------------------------------------------------|
Bb|-0--(X16)---0--(X16)---0--(X32)------------------------------------------|
Gb|-9----------9----------4-------------------------------------------------|
Db|-9----------9----------2-------------------------------------------------|
Ab|-7----------6----------0-------------------------------------------------|
Eb|-------------------------------------------------------------------------|     X2

Chorus: Same as Intro Cont.

Verse 2
eb|-0----------0----------0---------0---------0---------0---------0---------|
Bb|-0--(X16)---0--(X16)---0--(X16)--0--(X16)--0--(X16)--0--(X16)--0--(X32)--|
Gb|-6----------4----------4---------4---------6---------4---------4---------|
Db|-6----------2----------4---------2---------6---------2---------4---------|
Ab|-4----------0----------2---------0---------4---------0---------2---------|
Eb|-------------------------------------------------------------------------|

Chorus

Bridge
eb|0---------0---------0---------0---------0---------0---------0---------0-~|
Bb|0--(X16)--0--(X16)--0--(X16)--0--(X16)--0--(x16)--0--(X16)--0--(X16)--11~|
Gb|4---------4---------9---------4---------4---------4---------9---------11~|
Db|2---------4---------9---------4---------2---------4---------9---------11~|
Ab|0---------2---------7---------2---------0---------2---------7---------9-~|
Eb|-------------------------------------------------------------------------|

Intro
Chorus

End Chorus:
eb|-0---------0---------0--------XX--0--------XX--0--------XX--0--------0~--|
Bb|-0--(X16)--0--(X16)--0--(X4)--XX--0--(X4)--XX--0--(X4)--XX--0--(X4)--0~--|
Gb|-9---------9---------4--------XX--4--------XX--4--------XX--4--------4~--|
Db|-9---------9---------2--------XX--2--------XX--2--------XX--2--------2~--|
Ab|-7---------6---------0--------XX--0--------XX--0--------XX--0--------0~--|
Eb|-------------------------------------------------------------------------|

************************************
| ~   vibrato
| x   Mute note
************************************
Добавлено: 06.07.2013
Другие материалы по этой песне:
  • Аккорды и текст

Страница создана 06.07.2013
http://primanota.ru/city-lights-and-shorelines/strawberry-pancake-breakfast-chords.htm
Привет, Гость.
Предлагаем пройти революционный курс по гитаре.
Подарок от PrimaNota.Ru, забирай!