PrimaNota.ru - самый крупный в мире бесплатный архив песенных текстов, аккордов, табулатур и нот


City Harmonic - Love - таба, видео

Регистрация Запомнить меня
Войти через:  Facebook Google Twitter Vk Yandex Mail.ru

City Harmonic - Love - таба, видео

Печатать
Просмотров: 132
-----------------------------------------------------------------------------
                                    LOVE              THE CITY HARMONIC
-----------------------------------------------------------------------------

Tabbed by:hurricaneherman
Tuning:Standard capo 2nd

Just found this band and have fallen in love with their sound. Here is a
great song of theirs.


~VERSE~

e|----------------------------------------------------------------|
B|------------------------------------5---------------5-----------|
G|----1---------------1-----------6-----6---6-----6-----6-----6---|
D|2-----2---2-----2-----2-----2-----------------------------------|
A|--------------------------------4-------4-----4---------4-------|
E|0-------0-----0---------0---------------------------------------|
     Love seems like such a tricky thing it can find us in the

e|------------------------|
B|----2---------------4---|
G|2-----2---2-----4-----4-|
D|------------------------|
A|0-------0-----0-2-------|
E|------------------------|
Gutter, and it can make us feel like

e|----------------------------------------------------------------|
B|------------------------------------5---------------5-----------|
G|----1---------------1-----------6-----6---6-----6-----6-----6---|
D|2-----2---2-----2-----2-----2-----------------------------------|
A|--------------------------------4-------4-----4---------4-------|
E|0-------0-----0---------0---------------------------------------|
   Kings, I could give away the whole wide world but if I never

e|------------------------|
B|----2---------------4---|
G|2-----2---2-----4-----4-|
D|------------------------|
A|0-------0-----0-2-------|
E|------------------------|
Had it, I never really had a

~CHORUS~

e|----------------------------------------------------------------|
B|----------------------------0-------------------------------0---|
G|----1---------------1---2-----------1---------------1---2-------|
D|2-----2---2-----2-----2---------2-----2---2-----2-----2---------|
A|------------------------0-------------------------------0-------|
E|0-------0-----0-----------------0-------0-----0-----------------|
                    Thing, God is Love God is 

e|------------------------------------------------|
B|----------------------------0---------------2/4-|
G|----1---------------1---2-----------1---2-------|
D|2-----2---2-----2-----2---------2-----2---------|
A|------------------------0---------------0-------|
E|0-------0-----0-----------------0---------------|
              Love, God is Love

e|--------------------------------|
B|--------------------------------|
G|----1---------------1-----------|
D|2-----2---2-----2-----2-----2---|
A|--------------------------------|
E|0-------0-----0---------0-------|

~VERSE~

e|----------------------------------------------------------------|
B|------------------------------------5---------------5-----------|
G|----1---------------1-----------6-----6---6-----6-----6-----6---|
D|2-----2---2-----2-----2-----2-----------------------------------|
A|--------------------------------4-------4-----4---------4-------|
E|0-------0-----0---------0---------------------------------------|
         Love Love is patient Love is kind Love it doesn't

e|------------------------|
B|----2---------------4---|
G|2-----2---2-----4-----4-|
D|------------------------|
A|0-------0-----0-2-------|
E|------------------------|
Envy, Love it doesn't suffer 

e|----------------------------------------------------------------|
B|------------------------------------5---------------5-----------|
G|----1---------------1-----------6-----6---6-----6-----6-----6---|
D|2-----2---2-----2-----2-----2-----------------------------------|
A|--------------------------------4-------4-----4---------4-------|
E|0-------0-----0---------0---------------------------------------|
  Pride, It doesn't keep your wrongs in mind 'cause he is not the

e|------------------------|
B|----2---------------4---|
G|2-----2---2-----4-----4-|
D|------------------------|
A|0-------0-----0-2-------|
E|------------------------|
Selfish type, yeah you know that's

~CHORUS~

e|----------------------------------------------------------------|
B|----------------------------0-------------------------------0---|
G|----1---------------1---2-----------1---------------1---2-------|
D|2-----2---2-----2-----2---------2-----2---2-----2-----2---------|
A|------------------------0-------------------------------0-------|
E|0-------0-----0-----------------0-------0-----0-----------------|
                    Love, God is Love God is 

e|------------------------------------------------|
B|----------------------------0---------------2/4-|
G|----1---------------1---2-----------1---2-------|
D|2-----2---2-----2-----2---------2-----2---------|
A|------------------------0---------------0-------|
E|0-------0-----0-----------------0---------------|
              Love, God is Love

e|--------------------------------|
B|--------------------------------|
G|----1---------------1-----------|
D|2-----2---2-----2-----2-----2---|
A|--------------------------------|
E|0-------0-----0---------0-------|

~BRIDGE~

e|----------------------------------------------------------------|
B|------------------------------------2---------------2-----------|
G|----3---------------3-----------2-----2---2-----2-----2-----2---|
D|4-----4---4-----4-----4-----4-----------------------------------|
A|--------------------------------0-------0-----0---------0-------|
E|2-------2-----2---------2---------------------------------------|

e|----------------------------------------------------------------|
B|----4---------------4-------------------------------------------|
G|4-----4---4-----4-----4-----4-------1---------------1-----------|
D|--------------------------------2-----2---2-----2-----2-----2---|
A|2-------2-----2---------2---------------------------------------|
E|--------------------------------0-------0-----0---------0-------|

e|----------------------------------------------------------------|
B|------------------------------------2---------------2-----------|
G|----3---------------3-----------2-----2---2-----2-----2-----2---|
D|4-----4---4-----4-----4-----4-----------------------------------|
A|--------------------------------0-------0-----0---------0-------|
E|2-------2-----2---------2---------------------------------------|

Keep in mind the capo here. Without the capo the B would be C# and so on.

B
whoa whoa whoa
C#m  B         E
Love Loves the truth
    A       E
And follows through
    A          B
And won't give up
C#m  B        E
Love will not lose
    A       E
And someday soon
             A       B    E
I'll see the face of Love

~OUTRO~

e|--------|
B|----0---|
G|2-------|
D|--------|
A|0-------|
E|--------|
   God is

e|----------------------------------------------------------------|
B|----------------------------0-------------------------------0---|
G|----1---------------1---2-----------1---------------1---2-------|
D|2-----2---2-----2-----2---------2-----2---2-----2-----2---------|
A|------------------------0-------------------------------0-------|
E|0-------0-----0-----------------0-------0-----0-----------------|
                    Love, God is Love God is 

e|------------------------------------------------------|
B|------------2/4-----5-------------0---------------2/4-|
G|----1---2-------6-----6---6---2-----------1---2-------|
D|2-----2-------------------------------2-----2---------|
A|--------0-------4-------4-----0---------------0-------|
E|0-------------------------------------0---------------|
               Love, God is Love God is Love

e|-----0----------|
B|----0-----------|
G|---1------------|
D|--2-------------|
A|-2--------------|
E|0---------------|

It slows down their at the end.

=============================================================================
I hope this tab is helpful to anyone who uses this tab but if you're not
satisfied and have to rate it lower than 5 stars, please leave a comment
as to why it didn't work for you. Thank you!

Peace, Love, I'm out.
Добавлено: 12.09.2013
Другие материалы по этой песне:
  • Аккорды и текст

Страница создана 12.09.2013
http://primanota.ru/city-harmonic/love-chords.htm
Привет, Гость.
Предлагаем пройти революционный курс по гитаре.
Подарок от PrimaNota.Ru, забирай!