PrimaNota.ru - самый крупный в мире бесплатный архив песенных текстов, аккордов, табулатур и нот


City Calm Down - Rabbit Run - аккорды и текст, видео

Регистрация Запомнить меня
Войти через:  Facebook Google Twitter Vk Yandex Mail.ru

City Calm Down - Rabbit Run - аккорды и текст, видео

Печатать
Просмотров: 40
Rabbit Run
City Calm Down
-------------------------------------------------------------------------------
                             RABBIT RUN - City Calm Down
-------------------------------------------------------------------------------
Tabbed by: ericamcn

Tuning: standard

Chords used:
   F#    B    G#
e|--2----2----4---------------|
B|--2----4----4---------------|
G|--3----4----5---------------|
D|--4----4----6---------------|
A|--4----2----6---------------|
E|--2----2----4---------------|


INTRO - main riff
e|-------------------------------------------------------------|
B|---------2-0---0---------------------------------------------|
G|-1-3-1-3-----3-----------1-1---------------------------------|
D|-----------------4-1---4-----4-1-----------------------------|
A|---------------------4---------------------------------------|
E|-------------------------------------------------------------|


[Intro]
F#                       B
If I deride you for your faults
                    F#                B        F#
Pretend they are my own and turn the other way
                       B
So vain they're my regrets
                     F#
Reflected in the mud
         B 
But I'm not ashamed


(main riff x1 then continue thorough chorus)


[Chorus]
F#
Believe me 
                       B
I'm losing sense of it all
          F#
I won't deny it
          B
So rabbit run away


(play this riff through the following verse or play chords)
e|---------------------------------------------------------------|
B|---------------------------------------------------------------|
G|-1-1-1-1-1-1-1-1-1---4-4-4-4-4-4-4-4-3-------------------------|
D|-------------------4-------------------------------------------|
A|---------------------------------------------------------------|
E|---------------------------------------------------------------|


[Verse 1]
G#
Voices tell me I'm better off eating
B
Eating all the violence I see without breathing
G#                                                B
To chew battered innocence not knowing what I've done
G#
Cold sweat holds the chill of the evening
B
Floor boards creak under leaks in the ceiling
G#   
I'm slipping up
            B
and almost gone


[Chorus]
F#
Believe me 
                       B
I'm losing sense of it all
           F#
Won't you mind  
          B
Turn the other way
F#
Believe me 
                       B
I'm losing sense of it all
          F#
I won't deny it
          B
So rabbit run away


{Verse 2]
G#
Inch by inch I am moving in circles
B
Stepping over cracks without knowing my purpose
G#                                      B
Counting my wins not knowing what I've done
G#
If I roll my luck 'cross the table
       B
You'll see my hope through the eye of the needle
  G#                   B
A narrow miss and I'm gone


[Chorus]
F#
Believe me 
                       B
I'm losing sense of it all
           F#
Won't you mind  
          B
Turn the other way
F#
Believe me 
                       B
I'm losing sense of it all
          F#
I won't deny it
          B
So rabbit run away


F#                       B
If I deride you for your faults
                    F#                B        F#
Pretend they are my own and turn the other way


[Chorus]
F#
Believe me 
                       B
I'm losing sense of it all
           F#
Won't you mind  
          B
Turn the other way
F#
Believe me 
                       B
I'm losing sense of it all
          F#
I won't deny it
          B
So rabbit run away

Добавлено: 07.06.2016
Вам также может быть интересно:
Другие материалы по этой песне:
  • Аккорды и текст

Страница создана 07.06.2016
http://primanota.ru/city-calm-down/rabbit-run-chords.htm
Привет, Гость.
Предлагаем пройти революционный курс по гитаре.
Подарок от PrimaNota.Ru, забирай!