PrimaNota.ru - самый крупный в мире бесплатный архив песенных текстов, аккордов, табулатур и нот


City And Colour - Take Care - таба, видео

Регистрация Запомнить меня
Войти через:  Facebook Google Twitter Vk Yandex Mail.ru

City And Colour - Take Care - таба, видео

Печатать
Просмотров: 128
-------------------------------------------------------------------------
                       Take Care - City And Colour
-------------------------------------------------------------------------


Tabbed by: Kevin Fortier
Email: hey_man2000@hotmail.com
Tunning: BEBEF#b
Tabbed for ultimate-guitar.com

h  - hammer on
p  - pull-off
/  - Slide Up
\  - Slide Down
~  - let ring

Note: - This tab has a mix of chords and note per note.
      - Chords like ---    ---|  are displayed and you can play them
                    ---    ---|  how you like.
                    -2- or -0-|
                    -0-    -4-|
                    -2-    ---|
                    -0-    ---|

      - Slight/Minor variations may occur due to his honest performance
        on the record.



   Intro
b-|-------------------------------------------|
F#|-------------------------------------------|
E-|-2-4p0----0-0---------------------------2--|
B-|-0-----0h4-44-5p4p0----0-0h2-2h4p2p0----0--|   x2
E-|-2-----------------2/4-4------------4\2-2--|
B-|-0--------------------------------------0--|


   Verse

   Take better...
b-|-------------------------------------------|
F#|-------------------------------------------|
E-|-2-4p0----0-0---------------------------2--|
B-|-0-----0h4-44-5p4p0----0-0h2-2h4p2p0----0--|   x2
E-|-2-----------------2/4-4------------4\2-2--|
B-|-0--------------------------------------0--|

   Cause only...
b-|--44------------4----------------|
F#|--55-------------5---0-----------|
E-|--44--------2-----4---------2----|
B-|---x--------0---------------0----|
E-|-4-4-7/9-\2-2--4------77/9--2----|
B-|------------0---------------0----|

   So take...
b-|-------------------------------------------|
F#|-------------------------------------------|
E-|-2-4p0----0-0---------------------------2--|
B-|-0-----0h4-44-5p4p0----0-0h2-2h4p2p0----0--|
E-|-2-----------------2/4-4------------4\2-2--|
B-|-0--------------------------------------0--|


   Chorus

   Cause you...
b-|-------------------------------------|
F#|-------------------------------------|
E-|----------0---0-------------0---0----|
B-|-0-0-4-0h4-4-4-4~--0-0-4-0h4-4-4-4~--|  x2
E-|-4-6-4-------4-----4-6-4-------4-----|
B-|-5-7-x-------x-----5-7-x-------x-----|

   Mistaken for...
b-|-----------------------------|
F#|-----------------------------|
E-|-----------0---0----2--------|
B-|-0-00---0h4-4---4~--0--------|
E-|-4-67-4-------4-----2--------|
B-|-5-79-5-------5-----0--------|


   Verse

   I will...
b-|-------------------------------------------|
F#|-------------------------------------------|
E-|-2-4p0----0-0---------------------------2--|
B-|-0-----0h4-44-5p4p0----0-0h2-2h4p2p0----0--|   x2
E-|-2-----------------2/4-4------------4\2-2--|
B-|-0--------------------------------------0--|

   And so sudden...
b-|--44------------44------------|
F#|--55------------55------------|
E-|--44--------2---44-------2----|
B-|---x--------0----x-------0----|
E-|-4-4-7/9-\2-2--4-4--7/9--2----|
B-|------------0------------0----|

   I will...
b-|-------------------------------------------|
F#|-------------------------------------------|
E-|-2-4p0----0-0---------------------------2--|
B-|-0-----0h4-44-5p4p0----0-0h2-2h4p2p0----0--|
E-|-2-----------------2/4-4------------4\2-2--|
B-|-0--------------------------------------0--|


Play Chorus


    Bridge

b-|-0---------------------------------|
F#|--4--------------------------------|
E-|---0----2h4p2p0---------0-2p0------|
B-|--------------------2/4-4----4-----|
E-|-2---2/4-------4p0-0---------------|
B-|-----------------------------------|

b-|----0---------------------------------|
F#|-----4--------------------------------|
E-|-----------2h4p2p0---------0-2p0------|
B-|-0-0-------------------2/4-4----4-----|
E-|-2-2----2/4-------4p0-----------------|
B-|--------------------------------------|

b-|----0-------------------------------------|
F#|-----4------------------------------------|
E-|-----------2h4p2p0---------0----0-----0---|
B-|-0-0-------------------2/4---4/7--7\2---2-|
E-|-2-2----2/4-------4p0---------------------|
B-|------------------------------------------|

b-|----0----------------------------------|
F#|-----4---------------------------------|
E-|-----------2h4p2p0---------0-----------|
B-|-0-0-------------------2/4--4-4-4\2----|
E-|-2-2----2/4-------4p0------------------|
B-|---------------------------------------|


   So take...
b-|-------------------------------------------|
F#|-------------------------------------------|
E-|-2-4p0----0-0---------------------------2--|
B-|-0-----0h4-44-5p4p0----0-0h2-2h4p2p0----0--|
E-|-2-----------------2/4-4------------4\2-2--|
B-|-0--------------------------------------0--|

b-|------------------------------------------|
F#|------------------------------------------|
E-|-2-4p0----0-0-------------------------2~~-|
B-|-0-----0h4-44-5p4p0----0-0h2-2h4p2p0--0~~-|
E-|-2-----------------2/4-4--------------2~~-|
B-|-0------------------------------------0~~-|



Take better care
Of yourself, my friend
For, you never know
When it will all
Come to an end

Cause only time will tell
When death shall ring his bell
So take better care
Of yourself, my friend

(Chorus)

Cause you are a single grain
A mere molecule
Mistaken for a king
You're only a simple fool

(Verse)

I will provide you
With a reason to believe
I will not desert you
In your time of need

And so sudden the winds change
And so sudden you lose your faith
I will provide you
With a reason to believe

(Chorus)

Cause you are a single grain
A mere molecule
Mistaken for a king
You're only a simple fool

So take, better care
Of yourself, my friend
Take better care
Of yourself, my friend



Hope you enjoy! Any comments/questions email me.
Добавлено: 01.06.2013
Другие материалы по этой песне:
  • Аккорды и текст

Страница создана 01.06.2013
http://primanota.ru/city-and-colour/take-care-chords.htm
Привет, Гость.
Предлагаем пройти революционный курс по гитаре.
Подарок от PrimaNota.Ru, забирай!