PrimaNota.ru - самый крупный в мире бесплатный архив песенных текстов, аккордов, табулатур и нот


City And Colour - Nowhere Texas - таба, видео

Регистрация Запомнить меня
Войти через:  Facebook Google Twitter Vk Yandex Mail.ru

City And Colour - Nowhere Texas - таба, видео

Печатать
Просмотров: 183
Уроки эстрадного вокала в Санкт-Петербурге
-------------------------------------------------------------------------------
                             Nowhere, Texas - City and Colour
-------------------------------------------------------------------------------
Tabbed by: Grim5554
E-mail: cole2christiansen@yahoo.com

Giving this a shot for my first tab since no one else has posted anything yet. 
It's simplified but most of the additional stuff is just classic Dallas Green
accents that you have to figure out on your own. 

Tuning: Standard / Capo: 3rd fret

Strumming is down down up up down up 

Chords used:

     Em     G  C7sus2  Cm6
e|----0-----0-----0-----0----|
B|----0-----0-----0-----0----|
G|----0-----0-----4-----0----|
D|----2-----4-----2-----4----|
A|----2-----2-----3-----3----|
E|----0-----3-----0-----0----|

      

e|---0-0-0-0-0-0-0----0-0---------0-0----0---|
B|---0-0-0-0-0-0-0----0-0---------0-0----0---|
G|---0-0-0-0-2-2-0----0-0--0------4-4----0---|
D|---0h2-2-2-2-2-0----4-4---4-----0h2----4---|
A|---2-2-2-2-2-2-2----0h2----2----3-3----3---|
E|---0-0-0-0-0-0-0----3-3-3-------0-0----0---| 


I think the chorus is just C7sus2-Em-G-C7sus2
 

*************************************

| h   hammer-on

*************************************
Добавлено: 22.11.2015
Другие материалы по этой песне:
  • Аккорды и текст

Страница создана 22.11.2015
http://primanota.ru/city-and-colour/nowhere-texas-chords.htm
Привет, Гость.
Предлагаем пройти революционный курс по гитаре.
Подарок от PrimaNota.Ru, забирай!