PrimaNota.ru - самый крупный в мире бесплатный архив песенных текстов, аккордов, табулатур и нот


City And Colour - Missing Serravalle - аккорды и текст, видео

Регистрация Запомнить меня
Войти через:  Facebook Google Twitter Vk Yandex Mail.ru

City And Colour - Missing Serravalle - аккорды и текст, видео

Печатать
Просмотров: 172
Уроки эстрадного вокала в Санкт-Петербурге
Авторы музыки: Dallas Green
Авторы текста: Dallas Green
Missing Serravalle
City And Colour
---------------------------------------
Missing (Serravalle) by City and Colour
---------------------------------------

Tuning: DADGBe
Capo on 5th fret 

h=hammer on
/=slide

So this is a chord version of the original tab by cuberonix and the chords given by XDMolotov in 
the comment section of that post.
The original post can be found here:
http://tabs.ultimate-guitar.com/c/city_and_colour/missing_tab.htm

I just thought I would write out the chords and their accordance with the lyrics. 

Chords:
Em9    (024000)
Emadd9 (224000)
CM7    (x32000)
Cadd9  (x32030)
Cmaj9  (x34030)
Em/G   (525000)
Em9/F# (424000)
Em    (222000)

Intro
e|----3-2---------------0-2-3-5---2h3---0-2-3--------|
B|-------3----------3----------------3--------3/5----|
G|--------2-4---2-4----------------------------------|
D|---------------------------------------------------|
A|---------------------------------------------------|
D|---------------------------------------------------|

e|---3-2------3-2----------------------7-5---10-7-5--------------|
B|------3--------3---3--------3-5-7-8-----5--------5-------------|
G|-------2-4------2-4--4-2-2h4-------------------------2---------|
D|---------------------------------------------------------2-----|
A|---------------------------------------------------------2-----|
D|---------------------------------------------------------------|

e|-0--0-0--0-0-0---0--0--0---0--0--0--0--0--0--0---0--0--0---0--0-0-0-|
B|-0--0-0--0-0-0---0--3--3---0--0--0--0--0--0--0---0--3--3---0--0-0-0-|
G|-0--0-0--0-0-0---0--0--0---0--0--0--0--0--0--0---0--0--0---0--0-0-0-|
D|-4--4-4--5/4-4---2--2--4---4--5--5--4--2--0--2---2--2--4---4--5-4-4-|
A|-2--0h2--2-2-0---3--3--3---2--2--2--2--2--2--2---3--3--3---2--2-2-0-|
D|-0--0h2--2-2-0---x--x--x---0--0--5--4--2--0--2---x--x--x---0--0-0-0-|

Em9               Emadd9
So, now you're not there
         CM7   Cadd9   Cmaj9
But your ghost 
                   Em9
Still burns in the air
                         Emadd9
And finally above us the waves
     CM7   Cadd9   Cmaj9
Have come 
             Em9
To take you away

Em9       Emadd9       CM7   Cadd9   Cmaj9

Em9

                             Emadd9
And with this song I say goodbye
              CM7   Cadd9   Cmaj9
And thank you for 
                       Em9
What you've done to my life
                Em/G Em9/F#  Em
And finally I'll say it with love
                 CM7   Cadd9   Cmaj9
I hope you're at rest 
              Em9
In the stars above
      Em9        Emadd9              CM7   Cadd9   Cmaj9
And I don't understand what you died for
   Em9              Emadd9        CM7   Cadd9   Cmaj9
We still could have given so much more
  Em9           Emadd9                  CM7   Cadd9   Cmaj9
I know you were something I could never be
  Em9               Emadd9              CM7   Cadd9   Cmaj9
I know you're still there watching over me

Em9 Emadd9 CM7   Cadd9   Cmaj9
Now, now 

Em9 Emadd9 CM7   Cadd9   Cmaj9
Now, now, now

Em/G Em9/F# Em9

That's all, folks. 
Again go visit
http://tabs.ultimate-guitar.com/c/city_and_colour/missing_tab.htm
to see the original post this was based off of. 
Добавлено: 25.03.2016
Другие материалы по этой песне:
  • Аккорды и текст

Страница создана 25.03.2016
http://primanota.ru/city-and-colour/missing-serravalle-chords.htm
Привет, Гость.
Предлагаем пройти революционный курс по гитаре.
Подарок от PrimaNota.Ru, забирай!