PrimaNota.ru - самый крупный в мире бесплатный архив песенных текстов, аккордов, табулатур и нот


City And Colour - Missing - таба, видео

Регистрация Запомнить меня
Войти через:  Facebook Google Twitter Vk Yandex Mail.ru

City And Colour - Missing - таба, видео

Печатать
Просмотров: 146
Ok this song is sort of easy when you learn it....
Capo on 5th fret 
Tuning: Standerd


Intro 1
e|----3-2---------------0-2-3-5---2h3---0-2-3--------|
B|-------3----------3----------------3--------3/5----|
G|--------2-4---2-4----------------------------------|
D|---------------------------------------------------|
A|---------------------------------------------------|
E|---------------------------------------------------|

e|---3-2------3-2----------------------7-5---10-7-5------------------------|
B|------3--------3---3--------3-5-7-8-----5--------5-----------------------|
G|-------2-4------2-4--4-2-2h4-------------------------2---4~--------------|
D|---------------------------------------------------------2~--------------|
A|---------------------------------------------------------2~--------------|
E|-------------------------------------------------------------------------|



Main Riff 
(you can figure out the strumming pattern yourself its easy)
e|-0-0-0-0-(0)-0-------------------------|
B|-0-0-0-0-(3)-0-------------------------|
G|-4-4-4-7-(2)-4-------------------------|(he doesnt do the hammer
D|-2-0h2-5-(2)-2-------------------------|on all the time)
A|-2-0h2-5-(2)-2-------------------------|
E|---------------------------------------|

Im very sure its mostly right..Enjoy plz rate!!

Legend:
h=hammer
()=optional
p=pull off

Добавлено: 07.06.2012
Другие материалы по этой песне:
  • Аккорды и текст

Страница создана 07.06.2012
http://primanota.ru/city-and-colour/missing-chords.htm
Привет, Гость.
Предлагаем пройти революционный курс по гитаре.
Подарок от PrimaNota.Ru, забирай!