PrimaNota.ru - самый крупный в мире бесплатный архив песенных текстов, аккордов, табулатур и нот


City And Colour - Forgive Me - аккорды и текст, таба, видео

Регистрация Запомнить меня
Войти через:  Facebook Google Twitter Vk Yandex Mail.ru

City And Colour - Forgive Me - аккорды и текст, таба, видео

Печатать
Просмотров: 185
Авторы музыки: Dallas Green
Авторы текста: Dallas Green
Forgive Me
City And Colour
Capo on first fret. I copied the intro from another persons tab, this is just for
people who want the chords

intro
>---------------------------------------------------------|
>-0h1-----1h3--0---------0h1---1h3--0--------3-3p1p0------|
>-0-----0------0------0--0-----------0--------------------|
>---------------------------------------------------------|
>-3---3--------2----2----0----0--------2---2--------------|
>---------------------------------------0h3---------------|

>-0--------0-------------0---0-3--------------|
>-0--------0---------1-----1----3---3p1p0-----|
>-0-----0--0---------0------------------------|
>-3--3-----0--0-------------------------------|
>-3--------5---5---0---0---------0h2----------|
>-1-1--1---3-3--------------------------------|


play the 5th chords like this
  F5          G5
--0-----------0-|
--0-----------0-|
--0-----------0-|
--3-----------0-|
--3-----------5-|
--1-----------3-|

  C        Em
So cross my heart
    Am      G
And hope to die
  F5     G5       F         G
Before i have the chance to lie
   C       Em
To you, my dear
       Am      G
Whom i wish no harm.
      F5          G5
But i know in the end,
          F        G
This will turn out wrong.
     C         Em
See, I've been known
   Am      G
to fall in love,
    F5        G5
But sometimes love
    Am     G
just is not enough.
   C          Em
My heart will stray
  Am       G
before too long
   F5         G5
So please, Forgive me,
         F           G
for when i sing this song

then he just kindof does his own thing with alot of ooo's and aah's
Добавлено: 17.08.2013
Другие материалы по этой песне:
  • Аккорды и текст

Страница создана 25.06.2013
http://primanota.ru/city-and-colour/forgive-me-chords.htm
Привет, Гость.
Предлагаем пройти революционный курс по гитаре.
Подарок от PrimaNota.Ru, забирай!