PrimaNota.ru - самый крупный в мире бесплатный архив песенных текстов, аккордов, табулатур и нот


Citizen - Silo - таба, видео

Регистрация Запомнить меня
Войти через:  Facebook Google Twitter Vk Yandex Mail.ru

Citizen - Silo - таба, видео

Печатать
Просмотров: 88
-------------------------------------------------------------------------------
                             SILO - Citizen
-------------------------------------------------------------------------------
Tabbed by: Squarehead
E-mail: fuparecords@gmail.com

Tuning: Drop C#

GUITAR 1:
e|---------------------------------------------------------------------------|
B|----------------6---8---4---4-(0)-------------3~----------1----------------|
G|--7-7-7-7-7-7--(0)-(0)-(0)-(0)--------------------------2---2--------------|
D|--x-x-x-x-x-x-------------------------(3)~------------2-------2------------|
A|--5-5-5-5-5-5--------------------------1~~----------0----------------------|
E|---------------------------------------------------------------------------|


Guitar 2:
e|---------------------------------------------------------------------------|
B|---------------------------------------------------------------------------|
G|---------------------------------------------------------------------------|
D|--0--x16-----0--x4----0--x4------------------------------------------------|
A|-5--x16-----1--x4----0--x4-------------------------------------------------|
E|---------------------------------------------------------------------------|


Chords Used:  D   Bb   Am

{Technically:(C#) (A) (G#m)}

You can throw in some bends and slides in there if you want to.

This song is so sick.

************************************

| /   slide up
| \   slide down
| h   hammer-on
| p   pull-off
| ~   vibrato
| +   harmonic
| x   Mute note
| b   Bend
| pb  Pre-bend
| br  Bend release
| pbr Pre-bend release
| brb Bend release bend

************************************
Добавлено: 06.08.2015
Другие материалы по этой песне:
  • Аккорды и текст

Страница создана 06.08.2015
http://primanota.ru/citizen/silo-chords.htm
Привет, Гость.
Предлагаем пройти революционный курс по гитаре.
Подарок от PrimaNota.Ru, забирай!