PrimaNota.ru - самый крупный в мире бесплатный архив песенных текстов, аккордов, табулатур и нот


Citizen - Sick And Impatient - таба, видео

Регистрация Запомнить меня
Войти через:  Facebook Google Twitter Vk Yandex Mail.ru

Citizen - Sick And Impatient - таба, видео

Печатать
Просмотров: 163
-----------------------------------------------------------------------------
                             SICK AND IMPATIENT - Citizen
-----------------------------------------------------------------------------

Tuning: Drop D

Intro:                         x2                                x2
e|-------------------------------|---------------------------------|
B|-------------------------------|---------------------------------|
G|-------------------------------|---------------------------------|
D|-------------------------------|---------------------------------|
A|-1-1-1-1-1-1-1-1-1-1-1-1-1-1-1-|---------------------------------|
D|-------------------------------|-1-1-1-1-1-1-1-1-1-1-1-1-1-1-1-1-|
 |                               |                                 |
e|-------------------------------|---------------------------------|
B|-------------------------------|---------------------------------|
G|-------------------------------|---------------------------------|
D|-----8---8p6--6----------------|---------------------------------|
A|------------------8---8p6---6--|-----4---4h6---6----6---6p4------|
D|-------------------------------|---------------------------------|


Verse: x2
e|-------------------------------|---------------------------------|
B|-------------------------------|---------------------------------|
G|-------------------------------|---------------------------------|x2
D|-------------------------------|---------------------------------|
A|-1-1-1-1-1-1-1-1-1-1-1-1-1-1-1-|---------------------------------|
D|-------------------------------|-1-1-1-1-1-1-1-1-1-1-1-1-1-1-1-1-|

e|---------------------------------|---------------------------------|
B|---------------------------------|---------------------------------|
G|---------------------------------|---------------------------------|
D|---------------------------------|---------------------------------|
A|-4-4-4-4-4-4-4-4-4-4-4-4-4-4-4-4-|-6-6-6-6-6-6-6-6-6-6-6-6-6-6-6-6-|
D|-4-4-4-4-4-4-4-4-4-4-4-4-4-4-4-4-|-6-6-6-6-6-6-6-6-6-6-6-6-6-6-6-6-|
 *first time, go back to the verse after the first chord. Second time, play the second chord


Chorus: x2
e|-----------------------------------------------------------------|
B|-----------------------------------------------------------------|
G|-------6---6----------6---6----------6---6-----3-3-3-3-6-6-6-6---|
D|-8--8xx6---6----8--8xx6---6----8--8xx6---6-----1-1-1-1-4-4-4-4---|
A|-8--8xx4---4----8--8xx4---4----8--8xx4---4-----1-1-1-1-4-4-4-4---|
D|-8--8xx4---4----8--8xx4---4----8--8xx4---4-----1-1-1-1-4-4-4-4---|


Outro: x4
e|---------------------------------------|
B|---------------------------------------|
G|---------------------------------------|
D|-4---4---4----4----8---8---8----8------|
A|-4---4---4----4----8---8---8----8------|
D|-4---4---4----4----8---8---8----8------|
 |                                       |
e|---------------------------------------|
B|-------------------6------------9---6--|
G|---------------6-------8---6-----------|
D|---------------------------------------|
A|---------------------------------------|
D|---------------------------------------|
Добавлено: 28.10.2013
Другие материалы по этой песне:
  • Аккорды и текст

Страница создана 28.10.2013
http://primanota.ru/citizen/sick-and-impatient-chords.htm
Привет, Гость.
Предлагаем пройти революционный курс по гитаре.
Подарок от PrimaNota.Ru, забирай!