PrimaNota.ru - самый крупный в мире бесплатный архив песенных текстов, аккордов, табулатур и нот


Citizen - Roam The Room - таба, видео

Регистрация Запомнить меня
Войти через:  Facebook Google Twitter Vk Yandex Mail.ru

Citizen - Roam The Room - таба, видео

Печатать
Просмотров: 116
Roam The Room
Citizen
jjjddd

Drop D

intro
e|----------------------------------------|
B|---------------------------------0------|
G|---------------------------------0------|
D|-2--2-5-5-2-5--5-7-7--2--2-5-5-0-5--0-0-| x2
A|-2--2-5-5-2-5--5-7-7--2--2-5-5-0-3--0-0-|
D|-2--2-5-5-2-5--5-7-7--2--2-5-5-0----0-0-|


verse 1
e|---------------------------------|    did the weight and all
B|---------------------------------|    the pressure bleed you out
G|-----0-------0-------0-------0---|    you got away but i still
D|---2---2---2---2---2---2---------| x3 carry you around
A|-2-------2-------2-------7-7---7-|    i carry you 
D|-2-------2-------2-------7-------|


e|-0--------------------------|
B|-0--------------------------|     around
G|-4-4-4-4-4-4-4-4-4-4-4-4-4--|
D|-5-5-5-5-5-5-5-5-5-5-5-5-5--|
A|-3-3-3-3-3-3-3-3-3-3-3-3-3--|
D|----------------------------|
[do a light palm mute that slowly eases off]


e|---------------------------------|    i wanna know what ive been fighting for
B|---------------------------------|    i wanna know what ive become
G|-----0-------0-------0-------0---|    and is it something else im waiting for
D|---2---2---2---2---2---2---------| x2 or is the damage finally done
A|-2-------2-------2-------7-7---7-|    cause im 
D|-2-------2-------2-------7-------|


riff
e|----------------------------------------|
B|---------------------------------0------|     done
G|---------------------------------0------|
D|-2--2-5-5-2-5--5-7-7--2--2-5-5-0-5--0-0-| x2
A|-2--2-5-5-2-5--5-7-7--2--2-5-5-0-3--0-0-|     im done
D|-2--2-5-5-2-5--5-7-7--2--2-5-5-0----0-0-|


chorus
e|-----------------------------------------------|     and its hard to watch you roam the room
B|-----------------------------------------------|     to watch you from the wall
G|-4--4--4-4-4-4--4--4-4-------------------------|     and its all ive got to think about 
D|-5--5--5-5-5-5--5--5-5--2--2--2-2-2-2--2--2-2--| x2
A|-3--3--3-3-3-3--3--3-3--2--2--2-2-2-2--2--2-2--|
D|------------------------2--2--2-2-2-2--2--2-2--|

e|----------------------------------------------|
B|----------------------------------------------|     its hard, to watch you roam the room
G|-4--4--4-4------------------------------------|     to watch you from
D|-5--5--5-5-7-7--7--7-7-2--2--2-2-2-5--5--5-5--| 
A|-3--3--3-3-7-7--7--7-7-2--2--2-2-2-5--5--5-5--|
D|-----------7-7--7--7-7-2--2--2-2-2-5--5--5-5--|

e|----------------------------|
B|----------------------------|   the wall
G|-4--4--4-4------------------|   and every day gets old
D|-5--5--5-5-7-7--7--7-7-2----|
A|-3--3--3-3-7-7--7--7-7-2----|
D|-----------7-7--7--7-7-2----|


verse 2
e|---------------------------------|
B|---------------------------------|    did you speak the words or say nothing at all
G|-----0-------0-------0-------0---|    and howd you find a way to speak up when i call 
D|---2---2---2---2---2---2---------| x3
A|-2-------2-------2-------7-7---7-|
D|-2-------2-------2-------7-------|


prechorus
e|-------------------------------------------|   and when your friends say im a waste of time 
B|-0-----------------------------------------|   then you can find out on your own
G|-0-----------------------------------------|   and if its coming down then pick a side
D|-9-9-9-9-9-9-9-9-9-9-9-9-9-\7777777777777/-|x2 then you can decide where you go
A|-10101010101010101010101010\7777777777777/-|
D|-10101010101010101010101010\7777777777777/-|


chorus
e|-----------------------------------------------|     and its hard to watch you roam the room
B|-----------------------------------------------|     to watch you from the wall
G|-4--4--4-4-4-4--4--4-4-------------------------|     and its all ive got to think about 
D|-5--5--5-5-5-5--5--5-5--2--2--2-2-2-2--2--2-2--| x2
A|-3--3--3-3-3-3--3--3-3--2--2--2-2-2-2--2--2-2--|
D|------------------------2--2--2-2-2-2--2--2-2--|

e|----------------------------------------------|
B|----------------------------------------------|     its hard, to watch you roam the room
G|-4--4--4-4------------------------------------|     to watch you from
D|-5--5--5-5-7-7--7--7-7-2--2--2-2-2-5--5--5-5--| 
A|-3--3--3-3-7-7--7--7-7-2--2--2-2-2-5--5--5-5--|
D|-----------7-7--7--7-7-2--2--2-2-2-5--5--5-5--|

e|----------------------------|
B|----------------------------|   the wall
G|-4--4--4-4------------------|   and every day gets old
D|-5--5--5-5-7-7--7--7-7-2----|
A|-3--3--3-3-7-7--7--7-7-2----|
D|-----------7-7--7--7-7-2----|


end
e|--------------------------------------------|
B|--------------------------------------------|
G|--------------------------------------------|  cause im done
D|--------------------------------------------|
A|---------------------------------3-3-3------|
D|-2--2-5-5-2-5--5-7-7--2--2-5-5-2-------0-0--|

e|----------------------------------------|
B|---------------------------------0------|
G|---------------------------------0------|
D|-2--2-5-5-2-5--5-7-7--2--2-5-5-0-5--0-0-| x4
A|-2--2-5-5-2-5--5-7-7--2--2-5-5-0-3--0-0-|
D|-2--2-5-5-2-5--5-7-7--2--2-5-5-0----0-0-|

e|---------------------------------|
B|---------------------------------|
G|---------------------------------|
D|-2~~~~~~~~~~~--------------------|
A|-2~~~~~~~~~~~---------feedback---|
D|-2~~~~~~~~~~~--------------------|
Добавлено: 23.09.2013
Другие материалы по этой песне:
  • Аккорды и текст

Страница создана 23.09.2013
http://primanota.ru/citizen/roam-the-room-chords.htm
Привет, Гость.
Предлагаем пройти революционный курс по гитаре.
Подарок от PrimaNota.Ru, забирай!