PrimaNota.ru - самый крупный в мире бесплатный архив песенных текстов, аккордов, табулатур и нот


Citizen Fish - Mind Bomb - аккорды и текст, таба, видео

Регистрация Запомнить меня
Войти через:  Facebook Google Twitter Vk Yandex Mail.ru

Citizen Fish - Mind Bomb - аккорды и текст, таба, видео

Печатать
Просмотров: 106
Mind Bomb
Citizen Fish
		   ==========================
Citizen Fish
MIND BOMB
==========================

Intro:
F#m A G#m G A G#m  (4 times)


Verses:
(Play these chords very staccato)

Mind bomb disposal......knockin on my head
checkin' out............meant just what i said...

   F#m                  G
|--2--2-x-2-x-2-x-2-x---3--3--3--3------|
|--2--2-x-2-x-2-x-2-x---3--3--3--3------|
|--2--2-x-2-x-2-x-2-x---4--4--4--4------|   (2 times)
|--4--4-x-4-x-4-x-4-x---5--5--5--5------|
|--4--4-x-4-x-4-x-4-x---5--5--5--5------|
|--2--2-x-2-x-2-x-2-x---3--3--3--3------|

They've drawn so many..........i might as well be dead...
The black board on the.........I wont eat what i fed...
     A                           E
|--x--5--x--5--x--5--x--5-----x--7--x--7--x--7--x--7-------|
|--x--5--x--5--x--5--x--5-----x--9--x--9--x--9--x--9-------|
|--x--6--x--6--x--6--x--6-----x--9--x--9--x--9--x--9-------|   (2
times)
|--x--7--x--7--x--7--x--7-----x--9--x--9--x--9--x--9-------|
|--x--7--x--7--x--7--x--7-----x--7--x--7--x--7--x--7-------|
|--x--5--x--5--x--5--x--5----------------------------------|


   F#m                  G
|--2--2-x-2-x-2-x-2-x---3--3--3--3------|
|--2--2-x-2-x-2-x-2-x---3--3--3--3------|
|--2--2-x-2-x-2-x-2-x---4--4--4--4------|   (2 times)
|--4--4-x-4-x-4-x-4-x---5--5--5--5------|
|--4--4-x-4-x-4-x-4-x---5--5--5--5------|
|--2--2-x-2-x-2-x-2-x---3--3--3--3------|


I've seen the public...     They Wouldnt let me in...
Conformity has a dress..     Too stone overthin....
     A                           E
|--x--5--x--5--x--5--x--5-----x--7--x--7--x--7--x--7-------|
|--x--5--x--5--x--5--x--5-----x--9--x--9--x--9--x--9-------|
|--x--6--x--6--x--6--x--6-----x--9--x--9--x--9--x--9-------|   (2
times)
|--x--7--x--7--x--7--x--7-----x--9--x--9--x--9--x--9-------|
|--x--7--x--7--x--7--x--7-----x--7--x--7--x--7--x--7-------|
|--x--5--x--5--x--5--x--5----------------------------------|

bla bla.....
   F#m                  G
|--2--2-x-2-x-2-x-2-x---3--3--3--3------|
|--2--2-x-2-x-2-x-2-x---3--3--3--3------|
|--2--2-x-2-x-2-x-2-x---4--4--4--4------|   (2 times)
|--4--4-x-4-x-4-x-4-x---5--5--5--5------|
|--4--4-x-4-x-4-x-4-x---5--5--5--5------|
|--2--2-x-2-x-2-x-2-x---3--3--3--3------|

     A                           E
|--x--5--x--5--x--5--x--5-----x--7--x--7--x--7--x--7-------|
|--x--5--x--5--x--5--x--5-----x--9--x--9--x--9--x--9-------|
|--x--6--x--6--x--6--x--6-----x--9--x--9--x--9--x--9-------|   (2
times)
|--x--7--x--7--x--7--x--7-----x--9--x--9--x--9--x--9-------|
|--x--7--x--7--x--7--x--7-----x--7--x--7--x--7--x--7-------|
|--x--5--x--5--x--5--x--5----------------------------------|

Chorus(???)

  F#m
|-2-2-x-2----x-x-x-2---x-x-x-2--x-x-x-------------|
|-2-2-x-2----x-x-x-2---x-x-x-2--x-x-x-------------|
|-2-2-x-2----x-x-x-2---x-x-x-2--x-x-x-------------|
|-4-4-x-4----x-x-x-4---x-x-x-4--x-x-x-------------|
|-4-4-x-4----x-x-x-4---x-x-x-4--x-x-x-------------|
|-2-2-x-2----x-x-x-2---x-x-x-2--x-x-x-------------|


             It's either be...
|-2-2-x-2----x-x-x-2---x-x-x-2--x-x-x-------------|
|-2-2-x-2----x-x-x-2---x-x-x-2--x-x-x-------------|
|-2-2-x-2----x-x-x-2---x-x-x-2--x-x-x-------------|
|-4-4-x-4----x-x-x-4---x-x-x-4--x-x-x-------------|
|-4-4-x-4----x-x-x-4---x-x-x-4--x-x-x-------------|
|-2-2-x-2----x-x-x-2---x-x-x-2--x-x-x-------------|

C this for all the verses....

Note: It would be great to have more Fish stuff here... If ya have any
request, just drop me a note...


=-=-=-=-=-=-=-=-=-=-=-=-=-=-=-=-=-=-=-=-=-=-=-=-=-=-=-=-=-=-=-=-=-=-=-=-=
=          F i S h  - Current Adress: polivier@jrv.qc.ca
= Comments/Corrections/Other Fish's/I Want Roio's   Please Email me!!!  =
=-=-=-=-=-=-=-=-=-=-=-=-=-=-=-=-=-=-=-=-=-=-=-=-=-=-=-=-=-=-=-=-=-=-=-=-=
See ya!     
Добавлено: 05.10.2013
Другие материалы по этой песне:
  • Аккорды и текст

Страница создана 12.04.2012
http://primanota.ru/citizen-fish/mind-bomb-chords.htm
Привет, Гость.
Предлагаем пройти революционный курс по гитаре.
Подарок от PrimaNota.Ru, забирай!