PrimaNota.ru - самый крупный в мире бесплатный архив песенных текстов, аккордов, табулатур и нот


Citizen Fish - City On A River - аккорды и текст, таба, видео

Регистрация Запомнить меня
Войти через:  Facebook Google Twitter Vk Yandex Mail.ru

Citizen Fish - City On A River - аккорды и текст, таба, видео

Печатать
Просмотров: 87
City On A River
Citizen Fish
Subject: c/citizen_fish/city_on_a_river.crd
Date: Mon, 22 Jun 1998 15:13:35 EST

-----------------------------------------------------------------------------
                        City On A River- CITIZEN FISH (from the album thirst)
-----------------------------------------------------------------------------

By: archer (archer10@hotmail.com)

Intro
    G    Bb   A    Ab   G    Bb    A      D
e|-3-3--6-6--5-5--4-4--3-3--6-6--5-5-5--5-5-5-|
B|-3-3--6-6--5-5--4-4--3-3--6-6--5-5-5--7-7-7-|
G|-4-4--7-7--6-6--5-5--4-4--7-7--6-6-6--7-7-7-|
D|-5-5--8-8--7-7--6-6--5-5--8-8--7-7-7--7-7-7-|
A|-5-5--8-8--7-7--6-6--5-5--8-8--7-7-7--5-5-5-|
E|-3-3--6-6--5-5--4-4--3-3--6-6--5-5-5--------|

 Verse

   G    Bb   A   F#   G   Bb   A    A

It's too  hard and time consuming to put the progressions in with the
lyrics
i'll leave it to you- dick is too good a lyricist to work out where to
play
each chord for each wrod- i can't be fucked to do it....

interlude before chorus: (power chords) A D A D A DDDDDDDDDD

the chorus is just power chords:

G Bb D F (octave) G (octave) D C F (octave)
G Bb D F (octave) G (octave) D C C

And the little interludy bit is just

G maj Bb maj and Fm maj


and that's about it for the chords...
Добавлено: 12.03.2012
Другие материалы по этой песне:
  • Аккорды и текст

Страница создана 12.03.2012
http://primanota.ru/citizen-fish/city-on-a-river-chords.htm
Привет, Гость.
Предлагаем пройти революционный курс по гитаре.
Подарок от PrimaNota.Ru, забирай!