PrimaNota.ru - самый крупный в мире бесплатный архив песенных текстов, аккордов, табулатур и нот


Circus Of Power - Machine - таба, видео

Регистрация Запомнить меня
Войти через:  Facebook Google Twitter Vk Yandex Mail.ru

Circus Of Power - Machine - таба, видео

Печатать
Просмотров: 127
Artist: Circus Of Power (Written by R.B. Mahler/G. Sunshine/A. Mitchell)
Title: Machine
Album: Self-titled (1988)
Transcribed by: Rockin' Hawk
Email: rockinhawk2000@yahoo.it
Circus of Power website: [[http://www.circusofpower.net/]]


***STANDARD TUNING***

e B G D A E

x = mute
b = bending
/ = slide up
\ = slide down

INTRO:
|------------------------------------------------------------------------|
|------------------------------------------------------------------------|
|------------------------------------------------------------------------|
|-------------9---9x---9---9---9x---9---9x---9x---9------7---7---6---5---|
|-------------7---7x---7---7---7x---7---7x---7x---7------5---5---4---3---|
|---0x---0x--------------------------------------------------------------|


|------------------------------------------------------------------------|
|------------------------------------------------------------------------|
|---2---2---0---2--------------------------------------------------------|
|---2---2---0---2------7---6---5-----------------------------------------|
|---0---0-------0------5---4---3-----------------------------------------|
|------------------------------------------------------------------------|


|------------------------------------------------------------------------|
|------------------------------------------------------------------------|
|------------------------------------------------------------------------|
|---4---5---6---7--------------------------------------------------------|
|---2---3---4---5--------------------------------------------------------|
|------------------------------------------------------------------------|


CHORUS:
|---------------------------------------------------------------------|
|---------------------------------------------------------------------|
|---------------------------------------------------------------------|
|-------------9---9x---9---9---9x---9---9x---9x---9------9x---5---7---|
|-------------7---7x---7---7---7x---7---7x---7x---7------7x---3---5---|
|---0x---0x-----------------------------------------------------------|


BRIDGE:
|---------------3-----------------------------------------------------|
|-------------------3-------------------------------------------------|
|-----------------------5-\-2-----------------------------------------|
|-------4---5---------------2---4------4---5---6---7------------------|
|---0---2---3---------------0---2------2---3---4---5------------------|
|---------------------------------------------------------------------|


ENDING RIFF:
|------------------------------------------------------------------------|
|------------------------------------------------------------------------|
|------------------------------------------------------------------------|
|------------------------------------------------------------5--5--5-----|
|---7---/-10---9-\-7------5---7---/-10---9-\-7b-\-5----------7--7--7-----|
|-----------------------------------------------------7------------------|


End


***CIRCUS OF POWER rules!!!***

If you find some mistakes, please e-mail me! ;-)

See ya!

Rockin' Hawk

Hey man, visit these cool websites:

www.slamrocks.com
www.sleazeroxx.com
Добавлено: 26.04.2012
Другие материалы по этой песне:
  • Аккорды и текст

Страница создана 26.04.2012
http://primanota.ru/circus-of-power/machine-chords.htm
Привет, Гость.
Предлагаем пройти революционный курс по гитаре.
Подарок от PrimaNota.Ru, забирай!