PrimaNota.ru - самый крупный в мире бесплатный архив песенных текстов, аккордов, табулатур и нот


Circus Lupus - Unrequited - аккорды и текст, таба, видео

Регистрация Запомнить меня
Войти через:  Facebook Google Twitter Vk Yandex Mail.ru

Circus Lupus - Unrequited - аккорды и текст, таба, видео

Печатать
Просмотров: 120
Unrequited
Circus Lupus
		   X-NEWS: muvms6 rec.music.makers.guitar.tablature: 10561
Relay-Version: ANU News - V6.1 08/24/93 VAX/VMS V5.5-2; site muvms6
Path: marshall.wvnet.edu!wvnvms.wvnet.edu!darwin.sura.net!howland.reston.ans.net!sol.ctr.columbia.edu!newsxfer.itd.umich.edu!gumby!wmichgw!162scott
Newsgroups: rec.music.makers.guitar.tablature
Message-ID:  1994Mar23.123526.16135@wmichgw>
Distribution: world
Organization: Western Michigan University
Summary: circus lupus
Lines: 55


This is off the first Circus Lupus album, Super Genius.  Their best album I
think.


                   Circus Lupus    "Unrequited"

------------------------------------------------------------------------------
------------------------------------------------------------------------------
------------------------------------------------------------------------------
-----------------------------------------------------------------------------
----------------------------------------------------------9-9-9-9-9-9---------
--4-4-4-4-4-4---4-4-4-4-4-4---4-4-4-4-4-4---4-4-4-4-4-6---7-7-7-7-7-7---------


------------------------------------------------------------------------------
------------------------------------------------------------------------------
------------------------------------------------------------------------------
-----------------------------------------------------------------------------
--9-9-9-9-9-9---9-9-9-9-9-9---9-9-9-9-9--------------------------------------
--7-7-7-7-7-7---7-7-7-7-7-7---7-7-7-7-7-11---9-9-9-9-9-9---9-9-9-9-9-13-13-13-



(slide the 11-9-7 on this part)
------------------------------------------------------------------------------
------------------------------------------------------------------------------
------------------------------------------------------------------------------
------------------------------------------------------------------------------
------------------------------------------------------------------------------
---11-11-11-11-11-11----11-11-11-11-11--9--7----------------------------------



(slide the part 7--6--4)
-----------------------------------------------------------------------------
-----------------------------------------------------------------------------
-----------------------------------------------------------------------------
-------------------------10----------------------------------------------------
----------------------------------------------------------------------------
-7-7-7-7-7-7---7-7-7-7-7-8--- 7-7-7-7-7-7---7-7-7-7-7--6--4-----------------


Go back to the start now only add an octave to the first note.
-----------------------------
-----------------------------
-----------------------------
--6-6-6-6-6-6---6-6-6-6-6-6--
-----------------------------
--4-4-4-4-4-4---4-4-4-4-4-4--

I hope you like this one.  If anyone trys it out, let me know what you think
of it.  Take care
greg     
Добавлено: 11.06.2013
Другие материалы по этой песне:
  • Аккорды и текст

Страница создана 22.02.2012
http://primanota.ru/circus-lupus/unrequited-chords.htm
Привет, Гость.
Предлагаем пройти революционный курс по гитаре.
Подарок от PrimaNota.Ru, забирай!