PrimaNota.ru - самый крупный в мире бесплатный архив песенных текстов, аккордов, табулатур и нот


Circle Takes The Square - Kill The Switch - текст песни, бас-таба, видео

Регистрация Запомнить меня
Войти через:  Facebook Google Twitter Vk Yandex Mail.ru

Circle Takes The Square - Kill The Switch - текст песни, бас-таба, видео

Печатать
Просмотров: 156
Уроки эстрадного вокала в Санкт-Петербурге
0:02
G||----------------|----------------|
D||----------------|----------------|
A||0-2-3---0-2-3-2-|----------------|
E||----------------|----------------|
0:10
G||----------------|----------------|
D||----------------|----------------|
A||0-0-0-0-0-------|----------------|
E||----------------|----------------|

Couldn't figure this part out

0:15
G||----------------|----------------|
D||----------------|----------------|
A||3---5---3---2---|0---------------|
E||----------------|----------------|
0:18
G||----------------|----------------|----------------|----------------|
D||----------------|----------------|----------------|----------------|
A||0-0-0-2-3-------|----------------|0-0-0-2-3-------|----------------|
E||----------------|----------------|----------------|----------------|

0:27
G||----------------|----------------|
D||----------------|----------------|
A||3-3-0---0-2-3-0-|----------------|
E||----------------|----------------|

0:33 X3
G||----------------|----------------|
D||2---2-------2---|----------------|
A||--3---3-2-3---3-|3-0-0-0-3-0-0-0-|
E||----------------|----------------|
0:43
G||----------------|----------------|
D||2---2-------2---|-------3--------|
A||--3---3-2-3---3-|3-5-3-2---2---2-|
E||----------------|----------------|
0:47
G||----------------|----------------|----------------|----------------|
D||----------------|----------------|----------------|----------------|
A||----------------|----------------|----------------|----------------|
E||----------------|----------------|----------------|----------------|

Couldn't figure this part out

1:08 ring then with bass drum kinda
G||----------------|----------------|
D||----------------|----------------|
A||0*--------------|----------------|
E||----------------|----------------|
1:59
G||----------------|----------------|----------------|----------------|
D||--------------0-|2-2---2---------|----------------|----------------|
A||0-0---2-3-3-----|--------3-3-2-2-|----------------|----------------|
E||----------------|----------------|----------------|----------------|

Couldn't figure this part out
2:47 X3
G||----------------|----------------|
D||2---2-------2---|----------------|
A||--3---3-2-3---3-|3-0-0-0-3-0-0-0-|
E||----------------|----------------|
2:58
G||----------------|----------------|
D||2---2-------2---|--------3-------|
A||--3---3-2-3---3-|3-5-3-2---2---2-|
E||----------------|----------------|

Couldn't figure this part out

3:13
G||----------------|----------------|----------------|----------------|
D||----------------|----------------|----------------|----------------|
A||3-0*--0-0---0---|----------------|----------------|----------------|
E||----------------|3-2-0*----------|0-2-3-3-3-------|3-5-3-2-0-------|

G||----------------|----------------|----------------|----------------|
D||----------------|----------------|----------------|----------------|
A||3-0*------------|----------------|----------------|----------------|
E||----------------|3-2-0*----------|0-2-3-3-3-------|3-5-3-2-0-------|

G||----------------|----------------|----------------|----------------|
D||----------------|----------------|----------------|----------------|
A||3-0*------------|----------------|----------------|----------------|
E||----------------|3-2-0*----------|0-2-3---3-------|3-5-3-2-0-------|

3:35
G||----------------|----------------|----------------|----------------|
D||----------------|----------------|----2-----------|----2-----------|
A||3-0*--------0---|----------------|0-3-----2*------|0-3-----2*------|
E||----------------|3-2-0*----------|----------------|----------------|
3:42
G||----------------|----------------|--------|
D||----2---2-2-----|----------------|--------|
A||0-3---------2-2-|----------------|--------|
E||----------------|----------------|--------|
3:47 varied (with bass drum then full out)
G||----------------|----------------|
D||----------------|----------------|
A||3333333300000000|22222222--------|
E||----------------|--------22222222|
4:41 X1
G||----------------|----------------|
D||------------2---|----------------|
A||0-3-3-2-0-3---2-|----------------|
E||----------------|----------------|
Couldn't figure this part out

5:23 x4
G||----------------||
D||----------------||
A||33330*--5--3--2-|| 5,3,2 is a triplet
E||----------------||
5:36 x2								crescendo
G||----------------|----------------|----------------|----------------|
D||----------------|----------------|----------------|----------------|
A||3-0-0-0-0-0-0-0-|----------------|----------------|----------------|
E||----------------|3-2-0*----------|0-2-3---3-------|3-5-3-2-0-------|
5:51 x2
G||----------------|----------------|----------------|----------------|
D||----------------|----------------|----------------|----------------|
A||3-0*------------|----------------|----------------|----------------|
E||----------------|3-2-0*----------|0-2-3-3-3-------|3-5-3-2-0-------|
6:07 x5
G||----------------|----------------|----------------|----------------|
D||----------------|----------------|----------------|----------------|
A||3-0*--0-0---0---|----------------|----------------|----------------|
E||----------------|3-2-0*----------|0-2-3-3-3-------|3-5-3-2-0-------|
6:48 X4
G||----------------|----------------|
D||----------------|----------------|
A||3-0*--0-0---0---|----------------|
E||----------------|3-2-0*----------|
7:01
G||----------------|----------------|
D||----------------|----------------|
A||--------00000000|0000000000000000|
E||----------------|----------------|
7:08
G||----------------|----------------|
D||----------------|----------------|
A||2*--------------|-------------2--|
E||----3*--0*------|--------53235-53|

G||----------------|----------------|
D||----------------|----------------|
A||----------------|-------------2--|
E||0*--------------|--------53235-53|

G||----------------|----------------|
D||----------------|----------------|
A||------3-2-------|----------------|
E||0*--0-----2-0---|----------------|

there are a few bits missing...but better than nothin huh?
Добавлено: 16.03.2012
Другие материалы по этой песне:
  • Аккорды и текст

Страница создана 16.03.2012
http://primanota.ru/circle-takes-the-square/kill-the-switch-chords.htm
Привет, Гость.
Предлагаем пройти революционный курс по гитаре.
Подарок от PrimaNota.Ru, забирай!