PrimaNota.ru - самый крупный в мире бесплатный архив песенных текстов, аккордов, табулатур и нот


Circle Takes The Square - Interview At The Ruins - текст песни, таба, видео

Регистрация Запомнить меня
Войти через:  Facebook Google Twitter Vk Yandex Mail.ru

Circle Takes The Square - Interview At The Ruins - текст песни, таба, видео

Печатать
Просмотров: 181
Still trying to figure out the rest.

E------------------------------------------------------|
B------------0---------0--------------0---------0------|
G----------3---3----3-------------3----3-----3---------|
D--------1-------1-------------1-----------1-----------|
A------------------------------------------------------|
E------4--------------------2--------------------------|

E--------------------------------------0---------------|
B------------0--------0-----0-----0-----0-----0--------|
G----------3---3---3-----------3-----------3-----------|
D--------1-------1-------------------------------------|
A------2-----------------------------------------------|
E-------------------------0----------------------------|
Добавлено: 15.07.2012
Другие материалы по этой песне:
  • Аккорды и текст

Страница создана 28.05.2012
http://primanota.ru/circle-takes-the-square/interview-at-the-ruins-chords.htm
Привет, Гость.
Предлагаем пройти революционный курс по гитаре.
Подарок от PrimaNota.Ru, забирай!