PrimaNota.ru - самый крупный в мире бесплатный архив песенных текстов, аккордов, табулатур и нот


Circle Takes The Square - Enter By The Narrow Gates - таба, бас-таба, видео

Регистрация Запомнить меня
Войти через:  Facebook Google Twitter Vk Yandex Mail.ru

Circle Takes The Square - Enter By The Narrow Gates - таба, бас-таба, видео

Печатать
Просмотров: 66
-------------------------------------------------------------------------------
              ENTER BY THE NARROW GATES - Circle Takes The Square             
-------------------------------------------------------------------------------
Tabbed by: pwdftw

Comments, suggestions, and corrections are very welcome.

Tuning: Drop C (CGCFAD)
Time signature: 4/4
Tempo: 110 BPM

Intro (I)
0:31-2:03
  1   2   3   4    1   2   3   4    1   2   3   4    1   2   3   4       
D|----------------|----------------|----------------|----------------|
A|3-----------3---|3-----------3---|----3---3-------|3---3---3---3---|
F|2-----------0---|2-----------0---|----2---2-------|0---2---2---0---|(Let each chord ring
C|0-----------0---|0-----------0---|----0---0---0-0-|0---0---0---0---|until another is played)
G|0-----------0---|0-----------0---|----0---0---0-0-|0---0---0---0---|
C|0-----------0---|0-----------0---|----0---0---0-0-|0---0---0---0---|
                                                * *

  1   2   3   4    1   2   3   4    1   2   3   4    1   2   3   4       
D|----------------|----------------|----------------|----------------|
A|3-----------3---|3-----------3---|----3---3-------|3---3---3---3---|<-This C is optional
F|2-----------0---|2-----------0---|----2---2-------|0---2---2---0---|
C|0-----------0---|0-----------0---|----0---0---0-0-|0---0---0---0---|x6
G|1-----------1---|1-----------1---|----1---1---1-1-|1---1---1---1---|
C|0-----------0---|0-----------0---|----0---0---0-0-|0---0---0---0---|
                                                * * 
2:04-2:07
End the section on:
D|----------------|
A|----------------|
F|----------------|
C|0---------------|
G|0---------------|
C|0---------------|


2:08-2:38 (II)
  1   2   3   4    1   2   3   4    1   2   3   4    1   2   3   4       
D|----------------|----------------|----------------|----------------|
A|----------------|3---------------|----------------|----------------|<-This is probably played
F|----------------|----------------|----------------|----------------|          by a 2nd guitar
C|----------------|----------------|----------------|----------------|
G|----------------|----------------|----------------|----------------|
C|0---3---2---0~~~|~~~~3---2---0---|8---------------|8---7---5---7---|

  1   2   3   4    1   2   3   4    1   2   3   4    1   2   3   4       
D|----------------|----------------|----------------|----------------|
A|----------------|3---------------|----------------|----------------|
F|----------------|----------------|----------------|----------------|
C|----------------|----------------|----------------|----------------|
G|----------------|----------------|----------------|--------5-7-----|
C|0---3---2---0~~~|~~~~3---2---0---|8---------------|0---------------|


2:38-3:38 (III, clean guitar)
Drew plays the intro (clean) for this part live, and I think that's what
he does in the recording, it's just really quiet and covered in effects.
Play this through the end of the next part with the acoustic.

2:53-3:38 (III, acoustic)
  1   2   3   4    1   2   3   4   
D|----------------|----------------|
A|----------------|--------6-------|<-This D# can come at random times.
F|--7---7---7---7-|--7---7---7---7-|
C|7---7---7---7---|7---7-------7---|
G|----------------|----------------| 
C|----------------|----------------|


3:39-4:09 (IV)
Left Guitar
  1   2   3   4    1   2   3   4    1   2   3   4    1   2   3   4
D|----------------|6---5---3---5---|----------------|----------------|
A|----6---5---3---|----------------|----6---5---3---|----------------|
F|----------------|----------------|3---------------|3---2---0---2---|
C|0---------------|----------------|----------------|----------------|x2
G|----------------|----------------|----------------|----------------|
C|----------------|----------------|----------------|----------------|

Right Guitar
  1   2   3   4    1   2   3   4    1   2   3   4    1   2   3   4
D|----1---0-------|----1---0-------|----1---0-------|3---1---0---1---|
A|------------3---|------------3---|------------3---|----------------|
F|----------------|----------------|----------------|----------------|x2
C|----------------|----------------|----------------|----------------|<-I like to add the remaining
G|----------------|----------------|1---------------|----------------|<-bottom three strings to the
C|0---------------|0---------------|----------------|----------------|<-first note of measures 1, 2, & 3


4:10-4:25 (V)
Left Guitar
  1   2   3   4    1   2   3   4    1   2   3   4    1   2   3   4   
D|----------------|----------------|----------------|----------------|
A|----------------|----------------|3---------------|----------------|
F|--------5-------|8---7---5---7---|2---------------|2---3---5-------|
C|5---8---7---5---|5---5---5---5---|0---3---2---3---|0---0---0-3-3---|
G|5---5~~~~-------|5---5---5---5---|0---3---2---3---|----------3-3---|
C|5---------------|----------------|0---3---2---3---|----------3-3---|
                                   |On the record it|          *
                                   |sounds like he  |
                                   |just plays the  |
                                   |high C string,  |
                                   |but live he does|
                                   |it this way and |
                                   |it sounds great.|

Right Guitar
  1   2   3   4    1    2    3     4     1   2   3   4    1   2   3   4    
D|----------------|---------------------|----------------|----------------|
A|----------------|---------------------|----------------|----------------|
F|----------------|---------------------|----------------|2---3---5---5---|
C|5---8---7---5---|13---12---10----12---|0---3---2---3---|0---0---0---3---|
G|5---5---5---5---|10---10---10----10---|0---3---2---3---|----------3-3---|
C|5---5---5---5---|10---10---10----10---|0---3---2---3---|----------3-3---|
                                                                    *

4:26-4:40 (VI)
This is just part IV repeated with the last measure of part V replacing the
last measure of the second repetition (both guitars).

4:40-6:01 (VII)
The distortion guitar from the previous section let the open C power chord ring
out for a while. As far as I can tell, it switches to 7/4 time here.

(VII, clean guitar [first just left, then boths sides])
  1 2 3 4 5 6 7  1 2 3 4 5 6 7   
D|6-----------6-|--------------|
A|------6-------|----6-----2~~~|
F|--7-----7-----|7-----7-------|
C|----0-----0---|--0-----0-----|x12 (I think)
G|--------------|--------------|
C|--------------|--------------|

6:01-6:55 (VIII)
(As far as I can tell) it changes to 6/4 time and 130 BPM for this part.
  1 2 3 4 5 6  1 2 3 4 5 6  1 2 3 4 5 6  1 2 3 4 5 6  1 2 3 4 5 6  1 2 3 4 5 6     
D|------------|------------|------------|------------|------------|------------|
A|------------|------------|------------|------------|------------|------------|
F|------------|------------|------------|------------|------------|------------|
C|7-7-7-7-7-0~|------------|------------|7-7-7-7---0~|--0~--------|------------|
G|4-4-4-5-5-0~|------------|------------|4-4-4-5---0~|--0~--------|------------|
C|4-4-4-0-0-0~|------------|------------|4-4-4-0---0~|--0~--------|------------|

  1 2 3 4 5 6  1 2 3 4 5 6  1 2 3 4 5 6  1 2 3 4 5 6  1 2 3 4 5 6  1 2 3 4 5 6 
D|------------|------------|1~----------|------------|------------|------------|
A|------------|------------|3~----------|------------|------------|------------|
F|------------|------------|2~----------|------------|------------|------------|
C|7-7-7-7---0-|0~----------|0~----------|7-7-7-7-7-0~|------------|------------|
G|4-4-4-5---0-|0~----------|------------|4-4-4-5-5-0~|------------|------------|
C|4-4-4-0---0-|0~----------|------------|4-4-4-0-0-0~|------------|------------|

  1 2 3 4 5 6  1 2 3 4 5 6  1 2 3 4 5 6  1 2 3 4 5 6  1 2 3 4 5 6  1 2 3 4 5 6  
D|------------|------------|------------|------------|------------|------------|
A|------------|------------|------------|------------|------------|------------|
F|------------|------------|------------|------------|------5---7-|------------|
C|7-7-7-7---0~|--0~--------|------------|7-7-7-7-7~--|2-2-2-5---7-|0~----------|
G|4-4-4-5---0~|--0~--------|------------|4-4-4-5-5~--|2-2-2-3---5-|0~----------|
C|4-4-4-0---0~|--0~--------|------------|4-4-4-0-0~--|2-2-2-----0-|0~----------| 
                         
  1   2   3   4   5   6                                                    
D|------------------------||
A|------------------------||
F|------------------------||
C|--------3---2---1-------||
G|0-0-0---3---2---1-------||
C|0-0-0---3---2---1-------||...into Spirit Narrative.
  * * *  

                         KEY
________________________________________________________
| SYMBOLS USED  |    MEANING    |       LOCATION        |
|      *        |   Palm mute   |    Below tab line     |
|      ~        |   Let ring    |        In tab         |
|      |        |  End measure  |        In tab         |
| 1, 2, 3, etc. |  Beat numbers |        In tab         |
|  I, II, etc.  |  Section #s   |  Beginning of section |
|_______________|_______________|_______________________|


The sun rises one less time
Than it will set.                                    
Добавлено: 15.07.2014
Другие материалы по этой песне:
  • Аккорды и текст

Страница создана 15.07.2014
http://primanota.ru/circle-takes-the-square/enter-by-narrow-gates-chords.htm
Привет, Гость.
Предлагаем пройти революционный курс по гитаре.
Подарок от PrimaNota.Ru, забирай!