PrimaNota.ru - самый крупный в мире бесплатный архив песенных текстов, аккордов, табулатур и нот


Circle One - Patterns Of Force - таба, бас-таба, видео

Регистрация Запомнить меня
Войти через:  Facebook Google Twitter Vk Yandex Mail.ru

Circle One - Patterns Of Force - таба, бас-таба, видео

Печатать
Просмотров: 136
Уроки эстрадного вокала в Санкт-Петербурге
-------------------------------------------------------------------------------
Patterns Of Force - Circle One
Patterns Of Force
-------------------------------------------------------------------------------
Tabbed by: axeslash
Email: holmzito@yahoo.com

Tuning: Both guitars standard tuning

Guitar 1:
e|---------------------------------------------------------------------------------|
B|---------------------------------------------------------------------------------|
G|-9-9-9-9-9-9-9-9-10-10-10-10-10-10-10-10-12-12-12-12-13-13-12-12-9-9-9-9-9-9-9-9-|
D|---------------------------------------------------------------------------------|
A|-7-7-7-7-7-7-7-7--8--8--8--8--8--8--8--8-10-10-10-10-11-11-10-10-7-7-7-7-7-7-7-7-|
E|---------------------------------------------------------------------------------|

Guitars 1 & 2:
e|---------------------------------------------------------------------------------|
B|---------------------------------------------------------------------------------|
G|-9-9-9-9-9-9-9-9-10-10-10-10-10-10-10-10-12-12-12-12-13-13-12-12-9-9-9-9-9-9-9-9-|
D|---------------------------------------------------------------------------------|
A|-7-7-7-7-7-7-7-7--8--8--8--8--8--8--8--8-10-10-10-10-11-11-10-10-7-7-7-7-7-7-7-7-|
E|---------------------------------------------------------------------------------|

Guitars 1 & 2:
e|----------------------------------------------|
B|----------------------------------------------|
G|-9--9-9----10--10-10----12--13--12--9--9-9----|
D|-9--9-9----10--10-10----12--13--12--9--9-9----|
A|-7--7-7-----8---8--8----10--11--10--7--7-7----|
E|----------------------------------------------| x2

Guitars 1 & 2:
e|------------------------------------------|
B|------------------------------------------|
G|-9--9-10----------------7-8-7-5-----------|
D|-9--9-10----10--10-7----7-8-7-5-5--5-5----|
A|-7--7--8----10--10-7----5-6-5-3-5--5-5----|
E|-------------8---8-5------------3--3-3----| x6

Guitars 1 & 2:
e|-----------------------------------------------|
B|-----------------------------------------------|
G|------5----9-9-9-9-10-10-10-10-9-9-9-9-7-7-7-7-|
D|-3----5----------------------------------------|
A|-3----3----7-7-7-7--8--8--8--8-7-7-7-7-5-5-5-5-|
E|-1---------------------------------------------|

Guitars 1 & 2
e|-------------------------------------------------------|
B|-------------------------------------------------------|
G|------5----9-9-9-9-10-10-10-10-13-13-13-13-10-10-10-10-|
D|-3----5------------------------------------------------|
A|-3----3----7-7-7-7--8--8--8--8-11-11-11-11--8--8--8--8-|
E|-1-----------------------------------------------------|

Guitars 1 & 2:
e|-----------------------------------------------|
B|-----------------------------------------------|
G|------5----9-9-9-9-10-10-10-10-9-9-9-9-7-7-7-7-|
D|-3----5----------------------------------------|
A|-3----3----7-7-7-7--8--8--8--8-7-7-7-7-5-5-5-5-|
E|-1---------------------------------------------|

Guitars 1 & 2:
e|-------------------------------------------------------|
B|-------------------------------------------------------|
G|------5----9-9-9-9-10-10-10-10-13-13-13-13-10-10-10-10-|
D|-3----5------------------------------------------------|
A|-3----3----7-7-7-7--8--8--8--8-11-11-11-11--8--8--8--8-|
E|-1-----------------------------------------------------|

Guitar 1:
e|---------------------------------------------------------------------------------|
B|---------------------------------------------------------------------------------|
G|-9-9-9-9-9-9-9-9-10-10-10-10-10-10-10-10-12-12-12-12-13-13-12-12-9-9-9-9-9-9-9-9-|
D|---------------------------------------------------------------------------------|
A|-7-7-7-7-7-7-7-7--8--8--8--8--8--8--8--8-10-10-10-10-11-11-10-10-7-7-7-7-7-7-7-7-|
E|---------------------------------------------------------------------------------|

Guitars 1 & 2:
e|---------------------------------------------------------------------------------|
B|---------------------------------------------------------------------------------|
G|-9-9-9-9-9-9-9-9-10-10-10-10-10-10-10-10-12-12-12-12-13-13-12-12-9-9-9-9-9-9-9-9-|
D|---------------------------------------------------------------------------------|
A|-7-7-7-7-7-7-7-7--8--8--8--8--8--8--8--8-10-10-10-10-11-11-10-10-7-7-7-7-7-7-7-7-|
E|---------------------------------------------------------------------------------|

Guitars 1 & 2:
e|----------------------------------------------|
B|----------------------------------------------|
G|-9--9-9----10--10-10----12--13--12--9--9-9----|
D|-9--9-9----10--10-10----12--13--12--9--9-9----|
A|-7--7-7-----8---8--8----10--11--10--7--7-7----|
E|----------------------------------------------| x2

Guitars 1 & 2:
e|------------------------------------------|
B|------------------------------------------|
G|-9--9-10----------------7-8-7-5-----------|
D|-9--9-10----10--10-7----7-8-7-5-5--5-5----|
A|-7--7--8----10--10-7----5-6-5-3-5--5-5----|
E|-------------8---8-5------------3--3-3----| x6

Guitars 1 & 2:
e|-----------------------------------------------|
B|-----------------------------------------------|
G|------5----9-9-9-9-10-10-10-10-9-9-9-9-7-7-7-7-|
D|-3----5----------------------------------------|
A|-3----3----7-7-7-7--8--8--8--8-7-7-7-7-5-5-5-5-|
E|-1---------------------------------------------|

Guitars 1 & 2
e|-------------------------------------------------------|
B|-------------------------------------------------------|
G|------5----9-9-9-9-10-10-10-10-13-13-13-13-10-10-10-10-|
D|-3----5------------------------------------------------|
A|-3----3----7-7-7-7--8--8--8--8-11-11-11-11--8--8--8--8-|
E|-1-----------------------------------------------------|

Guitars 1 & 2:
e|-----------------------------------------------|
B|-----------------------------------------------|
G|------5----9-9-9-9-10-10-10-10-9-9-9-9-7-7-7-7-|
D|-3----5----------------------------------------|
A|-3----3----7-7-7-7--8--8--8--8-7-7-7-7-5-5-5-5-|
E|-1---------------------------------------------|

Guitars 1 & 2:
e|-------------------------------------------------------|
B|-------------------------------------------------------|
G|------5----9-9-9-9-10-10-10-10-13-13-13-13-10-10-10-10-|
D|-3----5------------------------------------------------|
A|-3----3----7-7-7-7--8--8--8--8-11-11-11-11--8--8--8--8-|
E|-1-----------------------------------------------------|

Guitars 1 & 2:
e|---------------------------------------------|
B|---------------------------------------------|
G|-9-9-9-9-10-10-10-10-13-13-13-13-10-10-10-10-|
D|---------------------------------------------|
A|-7-7-7-7--8--8--8--8-11-11-11-11--8--8--8--8-|
E|---------------------------------------------| x2

Guitars 1 & 2:
e|----------------------------------------------|
B|----------------------------------------------|
G|-9-9-9-9-10-10-10-10-13-13-13-13-10-10-10-10--|
D|-9-9-9-9-10-10-10-10-13-13-13-13-10-10-10-10--|
A|-7-7-7-7--8--8--8--8-11-11-11-11--8--8--8--8--|
E|----------------------------------------------|



| /  slide up
| \  slide down
| h  hammer-on
| p  pull-off
| ~  vibrato
| +  harmonic
| x  Mute note
===============================================================================
Добавлено: 07.03.2012
Другие материалы по этой песне:
  • Аккорды и текст

Страница создана 07.03.2012
http://primanota.ru/circle-one/patterns-of-force-chords.htm
Привет, Гость.
Предлагаем пройти революционный курс по гитаре.
Подарок от PrimaNota.Ru, забирай!