PrimaNota.ru - самый крупный в мире бесплатный архив песенных текстов, аккордов, табулатур и нот


Circle Of Contempt - Zero Hour - таба, видео

Регистрация Запомнить меня
Войти через:  Facebook Google Twitter Vk Yandex Mail.ru

Circle Of Contempt - Zero Hour - таба, видео

Печатать
Просмотров: 45
[Zero Hour]
[Artifacts In Motion]
[Circle Of Contempt]

Tuning: CGCFAD (Drop C)
joshuaoliveira@hotmail.com

As Requested By: shadow900

5/4

[Riff 1, Guitar 1 & 2] - [00:00] - [00:03]
- -----------------------|
- -----------------------|
- -----------------------|
- -2~----2~~------2~~----|
- -6~----6~~------6~~----|
- ----11-----1-------1---|
PM    ..     .       .
- -----------------------|
- -----------------------|
- -----------------------|
- -2-----2~~------2~~----|
- -6-----6~~------6~~----|
- --1-1------1---1-----1-|
PM  ...      .   .     .

4/4

The bend on the first note is a quick bend up and a slow release

[Riff 2, Guitar 1 & 2] - [00:03] - [00:18-| - [x4]
- --------------------------------------------|
- --------------------------------------------|
- --------------------------------------------|
- -----------2~~-----2~~----------------------|
- ----0~~0--06~~0~00-6~~-0~~0----0~-----------|
- -1br1~~1--1---1~11-----1~~1----1~-----------|
PM    .......   ....     ..........
- ----------------------------------|
- ----------------------------------|
- ----------------------------------|
- -----------2~~-------------2~~----|
- ----0~~01~06~~0~00----0---06~~0---|
- -4br1~~1--1---1~11----1---1---1---|
PM    ....  .   .............   .


[Riff 3a, Guitar 1 & 2] - [00:18] - [00:45]
- ------------------------------------------------------------------|
- ------------------------------------------------------------------|
- ------------------------------------------------------------------|
- ------------------------------------------------------------------|
- ----0~~0--0---0~00----00~~0---00~---0~~0--0---0~00----00~~0-------|
- -1br0~~0--0---0~00----00~~0---00~1br0~~0--0---0~00----00~~0-------|
PM    .............................   .......................
- ------------------------------------------------------------------|
- ------------------------------------------------------------------|
- ------------------------------------------------------------------|
- ------------------------------------------------------------------|
- ----0~~01~0---0~00----00~~0---00~---0~~01~0---0~00----00~~0-------|
- -4br0~~0--0---0~00----00~~0---00~4br0~~0--0---0~00----00~~0-------|
PM    ....  .......................   ....  .................


- ------------------------------------------------------------------|
- ------------------------------------------------------------------|
- ------------------------------------------------------------------|
- ------------------------------------------------------------------|
- ----0~~0--0---0~00----00~~0---00~---0~~0--0---0~00----00~~0---00~-|
- -1br0~~0--0---0~00----00~~0---00~1br0~~0--0---0~00----00~~0---00~-|
PM    .............................   .............................
- ------------------------------------------------------------------|
- ------------------------------------------------------------------|
- ------------------------------------------------------------------|
- ------------------------------------------------------------------|
- ----0~~01~0---0~00----00~~0---00~---0~~01~0---0~00----00~~0---00~-|
- -4br0~~0--0---0~00----00~~0---00~4br0~~0--0---0~00----00~~0---00~-|
PM    ....  .......................   ....  .......................


- ------------------------------------------------------------------|
- ------------------------------------------------------------------|
- ------------------------------------------------------------------|
- ------------------------------------------------------------------|
- ----0~~0--0---0~00----00~~0---00~---0~~0--0---0~00----00~~0-------|
- -1br0~~0--0---0~00----00~~0---00~1br0~~0--0---0~00----00~~0-------|
PM    .............................   .......................
- ------------------------------------------------------------------|
- ------------------------------------------------------------------|
- ------------------------------------------------------------------|
- ------------------------------------------------------------------|
- ----0~~01~0---0~00----00~~0---00~---0~~01~0---0~00----00~~0-------|
- -4br0~~0--0---0~00----00~~0---00~4br0~~0--0---0~00----00~~0-------|
PM    ....  .......................   ....  .................


- ----------------------------------|
- ----------------------------------|
- ----------------------------------|
- ----------------------------------|
- ----0~~0--0---0~00----00~~0-------|
- -1br0~~0--0---0~00----00~~0-------|
PM    .......................
- ----------------------------------|
- ----------------------------------|
- ----------------------------------|
- ----------------------------------|
- ----0~~01~0---0~00----00~~0-------|
- -4br0~~0--0---0~00----00~~0-------|
PM    .......................


[Riff 3b] - [00:18] - [00:45]
- -13------13------13------13------13------13-12-----12-----12-----12-----12-----12--|
- -----10------10------10------10------10---------8------8------8------8------8------|
- -----------------------------------------------------------------------------------|
- -----------------------------------------------------------------------------------|
- -----------------------------------------------------------------------------------|
- -----------------------------------------------------------------------------------|

- -10-----10-----10-----10-----10-----10-8-----8-----8-----8-----8-----8--|
- -----6------6------6------6------6--------5-----5-----5-----5-----5-----|
- ------------------------------------------------------------------------|
- ------------------------------------------------------------------------|
- ------------------------------------------------------------------------|
- ------------------------------------------------------------------------|

- -13------13------13------13------13------13-12-----12-----12-----12-----12-----12--|
- -----10------10------10------10------10---------8------8------8------8------8------|
- -----------------------------------------------------------------------------------|
- -----------------------------------------------------------------------------------|
- -----------------------------------------------------------------------------------|
- -----------------------------------------------------------------------------------|

- -10-----10-----10-----10-----10-----10-|
- -----6------6------6------6------6-----|
- ---------------------------------------|
- ---------------------------------------|
- ---------------------------------------|
- ---------------------------------------|

[Synth] - [00:45] - [01:01] - [8 Bars]

[Riff 3b] - [01:01] - [01:31]

[Riff 4] - [01:01] - [01:16------------------------------------------| - [x2]
- -------------------------------------------------------------------|
- -------------------------------------------------------------------|
- -------------------------------------------------------------------|
- -------------------------------------------------------------------|
- ----0~~0--0---0~00----00~~0---00~---0~~0--0---0~00----00~~0--------|
- -1br0~~0--0---0~00----00~~0---00~1br0~~0--0---0~00----00~~0--------|
PM    .............................   .......................


[Riff 5, Guitar 1 & 2] - [01:16] - [01:31]
- ------------------------------------------------------------------|
- ------------------------------------------------------------------|
- ------------------------------------------------------------------|
- ------------------------------------------------------------------|
- ----0~~0~~0~~~0~00~~~~00~~0~~~00~---0~~0~~0~~~0~00~~~~00~~0~~~~~~-|
- -1br0~~0~~0~~~0~00~~~~00~~0~~~00~1br0~~0~~0~~~0~00~~~~00~~0~~~~~~-|
PM    .............................   .......................
- ------------------------------------------------------------------|
- ------------------------------------------------------------------|
- ------------------------------------------------------------------|
- ------------------------------------------------------------------|
- ----0~~0~~0~~~0~00~~~~00~~0~~~00~---0~~0~~0~~~0~00~~~~00~~0~~~00~-|
- -1br0~~0~~0~~~0~00~~~~00~~0~~~00~1br0~~0~~0~~~0~00~~~~00~~0~~~00~-|
PM    .............................   .......................


- --------------------------------------------------------------------|
- --------------------------------------------------------------------|
- --------------------------------------------------------------------|
- ------------------------------------------------------------1/4p0---|
- ----0~~0~~0~~~0~00~~~~00~~0~~~00~---0~~0~~0~~~0~00~~~~00~~~0-----0~-|
- -1br0~~0~~0~~~0~00~~~~00~~0~~~00~1br0~~0~~0~~~0~00~~~~00~~~0-----1~-|
PM    .............................   ........................     .
- --------------------------------------------------------------------|
- --------------------------------------------------------------------|
- --------------------------------------------------------------------|
- ------------------------------------------------------------4/7p0---|
- ----0~~0~~0~~~0~00~~~~00~~0~~~00~---0~~0~~0~~~0~00~~~~00~~~0-----0~-|
- -1br0~~0~~0~~~0~00~~~~00~~0~~~00~1br0~~0~~0~~~0~00~~~~00~~~0-----1~-|
PM    .............................   ........................


5/4

[Riff 6, Guitar 1 & 2] - [01:31] - [01:58]
- ----------------------|
- ----------------------|
- ----------------------|
- ---2~~------2~--------|
- -0-6~~-0~~0-6~-0--0~0-|
- -1-----1~~1----1--1~1-|
PM .     ....    ......
- ----------------------|
- ----------------------|
- ----------------------|
- ---2~~------2~--------|
- -0-6~~0---0-6~0---0~0-|
- -1----1---1---1---1~1-|
PM .    .....   .......

4/4

- --------------------------------------|
- --------------------------------------|
- --------------------------------------|
- -----------1/4p0------------1/4p0-----|
- -0~~0---0~0-----0~~0-----0~0-----0----|
- -1~~1---1~1-----1~~1-----1~1-----1----|
PM ..........     ............     .
- --------------------------------------|
- --------------------------------------|
- --------------------------------------|
- -----------4/7p0------------4/7p0-----|
- -0~~0---0~0-----0~~0----0--0-----0----|
- -1~~1---1~1-----1~~1----1--1-----1----|
PM ..........     ............     .

6/4

- -----------------------------|
- -----------------------------|
- -----------------------------|
- -----------------1/4p0-------|
- ----0~~0--0---0~0-----0~~----|
- -1br1~~1--1---1~1-----1~~2br-|
PM    .............
- -----------------------------|
- -----------------------------|
- -----------------------------|
- -----------------4/7p0-------|
- ----0~~01~0---0~0-----0~~----|
- -4br1~~1--1---1~1-----1~~2br-|
PM    ....  .......

4/4

- -------------------------------------------------------------------|
- -------------------------------------------------------------------|
- -------------------------------------------------------------------|
- -----------2~~-----2~~----------------------2~~-----2~~------------|
- ----0~~0--06~~0~00-6~~-0~~0----0~----0~~0--06~~0~00-6~~-0~~0----0~-|
- -1br1~~1--1---1~11-----1~~1----1~-1br1~~1--1---1~11-----1~~1----1~-|
PM    .......   ....     ..........    .......   ....     .........
- -------------------------------------------------------------------|
- -------------------------------------------------------------------|
- -------------------------------------------------------------------|
- -----------2~~-------------2~~--------------2~~-------------2~~----|
- ----0~~01~06~~0~00----0---06~~0------0~~01~06~~0~00----0---06~~0---|
- -4br1~~1--1---1~11----1---1---1---4br1~~1--1---1~11----1---1---1---|
PM    ....  .   .............   .      ....  .   .............   .


- ---------------------------------------------------------------------------------|
- ---------------------------------------------------------------------------------|
- -10\-----------------------------------------------------------------------------|
- -x--------0~---------------------------------------------------------------------|
- -8\-------0~-(hold for 4.5 bars)-------------------------------------------------|
- -0~-------0~---------------------------------------------------------------------|
-
- ---------------------------------------------------------------------------------|
- ---------------------------------------------------------------------------------|
- -10\-----------------------------------------------------------------------------|
- -x--------0~---------------------------------------------------------------------|
- -8\-------0~-(hold for 4.5 bars)-------------------------------------------------|
- -0~-------0~---------------------------------------------------------------------|


[Riff 7] - [01:58] - [03:02-----------------------------| - [x3]
- ------------------------------------------------------|
- ------------------------------------------------------|
- ------------------------------------------------------|
- -0~------------------------------8~-------------------|
- -0~(hold for 8 bars)-------------8~(hold for 4 bars)--|
- -0~------------------------------8~-------------------|

[Symbols]

PM... Palm Mute notes with (...) under them
AP... Alternate Pick notes with (...) under them
h     Hammer On
p     Pull Off
[ ]   Harmonic
/     Slide Up
\     Slide Down
x     Dead Note
b     Bend
p     Pre-Bend
r     Release Bend
(x )  Play Notes x amount of times
~     Let Ring
/ 3 \ Notes are triplets (3 notes in the space of two)

:)
Добавлено: 31.12.2015
Другие материалы по этой песне:

Страница создана 31.12.2015
http://primanota.ru/circle-of-contempt/zero-hour-chords.htm
Привет, Гость.
Предлагаем пройти революционный курс по гитаре.
Подарок от PrimaNota.Ru, забирай!