PrimaNota.ru - самый крупный в мире бесплатный архив песенных текстов, аккордов, табулатур и нот


Circle Jerks - Question Authority - текст песни, таба, видео

Регистрация Запомнить меня
Войти через:  Facebook Google Twitter Vk Yandex Mail.ru

Circle Jerks - Question Authority - текст песни, таба, видео

Печатать
Просмотров: 87
Авторы: Roger Rogerson



E-----------
B-----------   intro
G-----------
D-7-9-------
A-7-9-------
E-5-7-------



E-----------------------
B----------------------- Verse
G-----------------------
D-7--77777777-99-77-9999
A-7--77777777-99-77-9999
E-5--55555555-77-55-7777
 OR try this one if you think it sounds better, i think it is but whichever works for you
G---------77----7777--- Verse alt
D-7777777-77-77-7777---
A-7777777-55-77-5555---
E-5555555----55--------
*NOTE* the first 775xxx powerchord is only played after the intro, never again(listen to
the song and you'll get it)


D-7777-5555-----------
A-7777-5555-----------
E-5555-3333-----------   Verse part 2(no words)



G-----------7777-------            Chorus
D-7777-5555-7777-5555--
A-7777-5555-5555-5555--
E-5555-3333------3333--


D-77-55-77-55-77-55-77-55-99-77-99-77-99-77-99-77
A-77-55-77-55-77-55-77-55-99-77-99-77-99-77-99-77
E-55-33-55-33-55-33-55-33-77-55-77-55-77-55-77 55    Chorus part 2(things to be)


G-------77--------------
D-77-77-77-55-----
A-77-55-55-55-----   outro
E-55-55----33-----
Song Order
Intro x3
Verse or Verse alt x4
Verse Part 2 x2
Chorus x2
Chorus part 2 x1
Verse x4
Chorus x2
Chorus x2
Outro x4
http://www.plyrics.com/lyrics/circlejerks/questionauthority.html
copy and paste it in adress bar to get the lyrics


Добавлено: 30.11.2013
Другие материалы по этой песне:
  • Аккорды и текст

Страница создана 17.06.2012
http://primanota.ru/circle-jerks/question-authority-chords.htm
Привет, Гость.
Предлагаем пройти революционный курс по гитаре.
Подарок от PrimaNota.Ru, забирай!