PrimaNota.ru - самый крупный в мире бесплатный архив песенных текстов, аккордов, табулатур и нот


Circle Jerks - In Your Eyes - текст песни, таба, видео

Регистрация Запомнить меня
Войти через:  Facebook Google Twitter Vk Yandex Mail.ru

Circle Jerks - In Your Eyes - текст песни, таба, видео

Печатать
Просмотров: 153
Уроки эстрадного вокала в Санкт-Петербурге
===============================================================================
                             In Your Eyes - Circle Jerks
===============================================================================
Tabbed by: Stewart

Tuning: Standard

It's a quick song, played fast AND only 41 seconds. But it's still a great song so I 
I needed to tab it.
The tab is very accurate, however, I don't recommend you play it just as it is written 
Try some variations in different parts - whatever works for you.

Any questions or corrections - email me at 1haha47(at)Gmail

Enjoy


Intro
e|------------------------------|------------------------------||
B|------------------------------|------------------------------||
G|--9--9---10-10---6--6---7--7--|--9--9---10-10---6--6---7--7--||
D|--9--9---10-10---6--6---7--7--|--7--7---10-10---6--6---7--7--||
A|--7--7----8--8---4--6---5--5--|--7--7----8--8---4--4---5--5--||
E|------------------------------|------------------------------||

e|------------------------------|------------------------------||
B|------------------------------|------------------------------||
G|--9--9---10-10---6--6---7--7--|--9--9---10-10---6--6---7--7--||
D|--9--9---10-10---6--6---7--7--|--7--7---10-10---6--6---7--7--||
A|--7--7----8--8---4--6---5--5--|--7--7----8--8---4--4---5--5--||
E|------------------------------|------------------------------||

Verse
e|-----------------------------------------|-----------------------------------------||
B|-----------------------------------------|-----------------------------------------||
G|-----------------------------------------|-----------------------------------------||
D|--7-7-7-7-7-7-7-7\5-5-5-5--12-(12)-10-9--|--7-7-7-7-7-7-7-7\5-5-5-5--12-(12)-10-9--||
A|--7-7-7-7-7-7-7-7\5-5-5-5--12-(12)-10-9--|--7-7-7-7-7-7-7-7\5-5-5-5--12-(12)-10-9--||
E|--5-5-5-5-5-5-5-5\3-3-3-3--10-(12)--8-7--|--5-5-5-5-5-5-5-5\3-3-3-3--10-(12)--8-7--||

Pre-Chorus
e|-------------------------------------|-------------------------------------||
B|-------------------------------------|-------------------------------------||
G|-------------------------------9b10--|-------------------------------9b10--||
D|--9-9-9-9-9-9-9-9\5-5-5-5-2----9b10--|--9-9-9-9-9-9-9-9\5-5-5-5-2----9b10--||
A|--9-9-9-9-9-9-9-9\5-5-5-5-2----------|--9-9-9-9-9-9-9-9\5-5-5-5-2----------||
E|--7-7-7-7-7-7-7-7\3-3-3-3-0----------|--7-7-7-7-7-7-7-7\3-3-3-3-0----------||

Chorus
e|------------------------------|------------------------------||
B|------------------------------|------------------------------||
G|--9--9---10-10---6--6---7--7--|--9--9---10-10---6--6---7--7--||
D|--9--9---10-10---6--6---7--7--|--7--7---10-10---6--6---7--7--||
A|--7--7----8--8---4--6---5--5--|--7--7----8--8---4--4---5--5--||
E|------------------------------|------------------------------||

e|------------------------------|------------------------------||
B|------------------------------|------------------------------||
G|--9--9---10-10---6--6---7--7--|--9--9---10-10---6--6---7--7--||
D|--9--9---10-10---6--6---7--7--|--7--7---10-10---6--6---7--7--||
A|--7--7----8--8---4--6---5--5--|--7--7----8--8---4--4---5--5--||
E|------------------------------|------------------------------||

Verse
e|-----------------------------------------|-----------------------------------------||
B|-----------------------------------------|-----------------------------------------||
G|-----------------------------------------|-----------------------------------------||
D|--7-7-7-7-7-7-7-7\5-5-5-5--12-(12)-10-9--|--7-7-7-7-7-7-7-7\5-5-5-5--12-(12)-10-9--||
A|--7-7-7-7-7-7-7-7\5-5-5-5--12-(12)-10-9--|--7-7-7-7-7-7-7-7\5-5-5-5--12-(12)-10-9--||
E|--5-5-5-5-5-5-5-5\3-3-3-3--10-(12)--8-7--|--5-5-5-5-5-5-5-5\3-3-3-3--10-(12)--8-7--||

Pre-Chorus
e|-------------------------------------|-------------------------------------||
B|-------------------------------------|-------------------------------------||
G|-------------------------------9b10--|-------------------------------9b10--||
D|--9-9-9-9-9-9-9-9\5-5-5-5-2----9b10--|--9-9-9-9-9-9-9-9\5-5-5-5-2----9b10--||
A|--9-9-9-9-9-9-9-9\5-5-5-5-2----------|--9-9-9-9-9-9-9-9\5-5-5-5-2----------||
E|--7-7-7-7-7-7-7-7\3-3-3-3-0----------|--7-7-7-7-7-7-7-7\3-3-3-3-0----------||

Chorus/End
e|------------------------------|------------------------------||
B|------------------------------|------------------------------||
G|--9--9---10-10---6--6---7--7--|--9--9---10-10---6--6---7--7--||
D|--9--9---10-10---6--6---7--7--|--7--7---10-10---6--6---7--7--||
A|--7--7----8--8---4--6---5--5--|--7--7----8--8---4--4---5--5--||
E|------------------------------|------------------------------||

e|------------------------------|------------------------------||
B|------------------------------|------------------------------||
G|--9--9---10-10---6--6---7--7--|--9--9---10-10---6--6---7--7--||
D|--9--9---10-10---6--6---7--7--|--7--7---10-10---6--6---7--7--||
A|--7--7----8--8---4--6---5--5--|--7--7----8--8---4--4---5--5--||
E|------------------------------|------------------------------||


| b  bend note
| /  slide up
| \  slide down
| h  hammer-on
| p  pull-off
| ~  vibrato
| +  harmonic
| x  Mute note
===============================================================================
Добавлено: 05.07.2012
Другие материалы по этой песне:
  • Аккорды и текст

Страница создана 04.04.2012
http://primanota.ru/circle-jerks/in-your-eyes-chords.htm
Привет, Гость.
Предлагаем пройти революционный курс по гитаре.
Подарок от PrimaNota.Ru, забирай!