PrimaNota.ru - самый крупный в мире бесплатный архив песенных текстов, аккордов, табулатур и нот


Circa Waves - 101 - таба, видео

Регистрация Запомнить меня
Войти через:  Facebook Google Twitter Vk Yandex Mail.ru

Circa Waves - 101 - таба, видео

Печатать
Просмотров: 106
-------------------------------------------------------------------------------
                             101 - Circa Waves
-------------------------------------------------------------------------------
Tabbed by: Pouj
E-mail: pierre.poughon@gmail.com

Hey, i'm not sure that this tab is a 100% accurate, so any corrections would be welcomed
but here it is
hello from France !

Tuning:standard

INTRO

e|---------------------------------------------------------------------------|
B|---------6-----------------------------------------------------------------|
G|---------------------------------------------------------------------------|
D|---------------------------------------------------------------------------|
A|---------------------------------------------------------------------------|
E|---------------------------------------------------------------------------|

then :


e|---------------------------------------------------------------------------|
B|---------------------------------------------------------------------------|
G|----7-7--10-x------7-7-7---------------------------------------------------|
D|----8-8--11-x--x3--8-8-8---------------------------------------------------|
A|----8-8--11-x------8-8-8---------------------------------------------------|
E|----6-6--9--x------6-6-6---------------------------------------------------|

e|---------------------------------------------------------------------------|
B|----9--9-----11--------9--9--11--------------------------------------------|
G|----10-10----12----x3--10-10-12--------------------------------------------|
D|----10-10----12--------10-10-12--------------------------------------------|
A|----8--8-----10--------8--8--10--------------------------------------------|
E|---------------------------------------------------------------------------|
VERSE

"My fore sight is full ..."
e|---------------------------------------------------------------------------|
B|-------6-------------------------------------------------------------------|
G|---------------------------------------------------------------------------|
D|---------------------------------------------------------------------------|
A|---------------------------------------------------------------------------|
E|---------------------------------------------------------------------------|

e|---------------------------------------------------------------------------|
B|---------------------------------------------------------------------------|
G|----7-7--10-x-----7-7-7----------------------------------------------------|
D|----8-8--11-x--x3-8-8-8----------------------------------------------------|
A|----8-8--11-x-----8-8-8----------------------------------------------------|
E|----6-6--9--x-----6-6-6----------------------------------------------------|

"Cause I know it's hard.."
that is not the actual number of strummings, but it gives you an idea when you listen to the song
e|---------------------------------------------------------------------------|
B|----9--9--9--9--/-11-11-11-11--------9--9--9--9----------------------------|
G|----10-10-10-10-/-12-12-12-12----x3--10-10-10-10---------------------------|
D|----10-10-10-10-/-12-12-12-12--------10-10-10-10---------------------------|
A|----8--8--8--8--/-10-10-10-10--------8--8--8--8----------------------------|
E|---------------------------------------------------------------------------|
".... you want!"
e|---------------------------------------------------------------------------|
B|---------------------------------------------------------------------------|
G|--7--7-7--9--10--10-10--7-7--7-7--6-7--------------------------------------|
D|--8--8-8--10-11--11-11--8-6--6-6--7-8--------------------------------------|
A|--8--8-8--10-11--11-11--8-6--6-6--7-8---x4---------------------------------|
E|--6--6-6--8--9---9--9---6-4--4-4--5-6--------------------------------------|

back to the intro

then: "It's handled in here..."
e|---------------------------------------------------------------------------|
B|----first guitar :-6---(lot of strumming)----------------------------------|
G|---------------------------------------------------------------------------|
D|-----------------------second :--11-11-10-9-(lot of strumming)-(PM)--------|
A|---------------------------------------------------------------------------|
E|---------------------------------------------------------------------------|

not really sure about this part 
e|---------------------------------------------------------------------------|
B|---------------------------------------------------------------------------|
G|---------------------------------10-(10)-(10)------------------------------|
D|-------------------8-(8)-(8)---8-------------------------------------------|
A|-----------------8---------------------------------------------------------|
E|---------------------------------------------------------------------------|

"'Cause I know it's hard.."
e|---------------------------------------------------------------------------|
B|-------------------------------------9-------------------------------------|
G|------------------------7------------10-----------7777777------------------|
D|------------------------8------------10------x3---8888888------------------|
A|------------------------8------------8------------8888888------------------|
E|--(bass playing 6-6-6)--6----(1-1-1)--------------6666666------------------|

Then back to the part : "... you want!" above
then intro
finish intro with :
e|---------------------------------------------------------------------------|
B|----9--9-----11--------9--9--11-11-\---------------------------------------|
G|----10-10----12----x3--10-10-12-12-\---------------------------------------|
D|----10-10----12--------10-10-12-12-\---------------------------------------|
A|----8--8-----10--------8--8--10-10-\---------------------------------------|
E|---------------------------------------------------------------------------|
 outro :

e|---------------------------------------------------------------------------|
B|---------------------------------------------------------------------------|
G|-2-2-2-2--6--8-8-8-8------77777777-----------------------------------------|
D|-3-3-3-3--7--9-9-9-9--x3--88888888-----------------------------------------|
A|-3-3-3-3--7--9-9-9-9------88888888-----------------------------------------|
E|-1-1-1-1--5--7-7-7-7------66666666-----------------------------------------|

Thank you, rate and comment for any changes

************************************

| /   slide up
| \   slide down
| h   hammer-on
| p   pull-off
| ~   vibrato
| +   harmonic
| x   Mute note
| b   Bend
| pb  Pre-bend
| br  Bend release
| pbr Pre-bend release
| brb Bend release bend

************************************
Добавлено: 14.10.2015
Вам также может быть интересно:
Другие материалы по этой песне:
  • Аккорды и текст

Страница создана 14.10.2015
http://primanota.ru/circa-waves/101-chords.htm
Привет, Гость.
Предлагаем пройти революционный курс по гитаре.
Подарок от PrimaNota.Ru, забирай!