PrimaNota.ru - самый крупный в мире бесплатный архив песенных текстов, аккордов, табулатур и нот


Circa Survive - Great Golden Baby - текст песни, таба, бас-таба, видео

Регистрация Запомнить меня
Войти через:  Facebook Google Twitter Vk Yandex Mail.ru

Circa Survive - Great Golden Baby - текст песни, таба, бас-таба, видео

Печатать
Просмотров: 120
Уроки эстрадного вокала в Санкт-Петербурге
GREAT GOLDEN BABY
As recorded by Circa Survive
(From the 2005 EP THE INUIT SESSIONS )

	

Words and Music by Circa Survive
Arranged by Circa Survive

Gtr I (D A D G B E) - 'Untitled'
Gtr II (D A D G B E) - 'Untitled'
Gtr III (D A D G B E) - 'Untitled'
Gtr IV (D A D G B E) - 'Untitled'
Gtr V (D A D G B E) - 'Untitled'

 Intro
  Q=139
  F5
 3/4
  Gtr I
   >
   H.                 +H.
|------------------|-------------------|
|------------------|-------------------|
|-10---------------|-(10)--------------|
|-10---------------|-(10)--------------|
|--8---------------|--(8)--------------|
|------------------|-------------------|
|
| Gtr II
|  Q     E  Q   E      Q     E  Q   E
|------------------|-------------------|
|------------------|------------8--(8)-|
|-----------8--(8)-|-------------------|
|------------------|--10---(10)--------|
|-11---(11)--------|-------------------|
|------------------|-------------------|


                                Eb5
   +H.                          H.
|-----------------------------|------------------|
|-----------------------------|------------------|
|-(10)------------------------|-8----------------|
|-(10)------------------------|-8----------------|
|--(8)------------------------|-6----------------|
|-----------------------------|------------------|
|
|           >
|   E   E   E    E    E    E    E  +E   E  Q   E
|-----------------------------|------------------|
|-----------------------------|------------------|
|-----------------------------|------------------|
|-----------------------------|------------------|
|--11--10-(11)-(10)-(11)-(10)-|-8--(8)s10-10--10-|
|-----------------------------|------------------|


  C5
   >
   H.                +H.
|------------------|------------------|
|------------------|------------------|
|--5---------------|-(5)--------------|
|--5---------------|-(5)--------------|
|--3---------------|-(3)--------------|
|------------------|------------------|
|
|  Q     E  Q   E     Q     E  Q   E
|------------------|------------------|
|------------------|-----------8--(8)-|
|-----------8--(8)-|------------------|
|------------------|-10---(10)--------|
|-11---(11)--------|------------------|
|------------------|------------------|


  +H.                          +H.
|----------------------------|-------------------|
|----------------------------|-------------------|
|-(5)------------------------|-(5)---------------|
|-(5)------------------------|-(5)---------------|
|-(3)------------------------|-(3)---------------|
|----------------------------|-------------------|
|
|          >
|  E   E   E    E    E    E     E  +E   E  Q   E
|----------------------------|-------------------|
|----------------------------|-------------------|
|----------------------------|-------------------|
|----------------------------|-------------------|
|-11--10-(11)-(10)-(11)-(10)-|--8--(8)s10-10--10-|
|----------------------------|-------------------|


  F5
   >
   H.                 +H.
|------------------|-------------------|
|------------------|-------------------|
|-10---------------|-(10)--------------|
|-10---------------|-(10)--------------|
|--8---------------|--(8)--------------|
|------------------|-------------------|
|
|  Q     E  Q   E      Q     E  Q   E
|------------------|-------------------|
|------------------|------------8--(8)-|
|-----------8--(8)-|-------------------|
|------------------|--10---(10)--------|
|-11---(11)--------|-------------------|
|------------------|-------------------|


                                Eb5
   +H.                          H.
|-----------------------------|------------------|
|-----------------------------|------------------|
|-(10)------------------------|-8----------------|
|-(10)------------------------|-8----------------|
|--(8)------------------------|-6----------------|
|-----------------------------|------------------|
|
|           >
|   E   E   E    E    E    E    E  +E   E  Q   E
|-----------------------------|------------------|
|-----------------------------|------------------|
|-----------------------------|------------------|
|-----------------------------|------------------|
|--11--10-(11)-(10)-(11)-(10)-|-8--(8)s10-10--10-|
|-----------------------------|------------------|


  C5
   >
   H.                +H.                +H.              +H.
|------------------|------------------|----------------|-------------------||
|------------------|------------------|----------------|-------------------||
|--5---------------|-(5)--------------|-(5)------------|-(5)---------------||
|--5---------------|-(5)--------------|-(5)------------|-(5)---------------||
|--3---------------|-(3)--------------|-(3)------------|-(3)---------------||
|------------------|------------------|----------------|-------------------||
|
|  Q     E  Q   E     Q     E  Q   E     E  +E  E Q  E    E  +E   E  Q   E
|------------------|------------------|----------------|-------------------||
|------------------|-----------8--(8)-|----------------|-------------------||
|-----------8--(8)-|------------------|----------------|-------------------||
|------------------|-10---(10)--------|----------------|-------------------||
|-11---(11)--------|------------------|--6--(6)s8-8--8-|--8--(8)s10-10--10-||
|------------------|------------------|----------------|-------------------||


 Verse
  F5
   >
   H.                 +H.                 +H.                H.
|------------------|-------------------|-------------------|--------------|
|------------------|-------------------|-------------------|--------------|
|-10---------------|-(10)--------------|-(10)--------------|--------------|
|-10---------------|-(10)--------------|-(10)--------------|--------------|
|--8---------------|--(8)--------------|--(8)--------------|--------------|
|------------------|-------------------|-------------------|--------------|
|
| Gtr III
|  E   E E  E E  E     E   E E  E E  E     E   E E  E E  E   E  E E E E E
|------------------|-------------------|-------------------|--------------|
|------------------|-------------------|-------------------|--------------|
|------------------|-------------------|-------------------|--------------|
|------------------|-------------------|-------------------|----8-8-8-8-8-|
|-11--10-8-10-8-10-|---8--10-8-10-8-10-|---6--10-8-10-8-10-|-8------------|
|------------------|-------------------|-------------------|--------------|


  N.C.
  Gtr II
   W                W                W                 H            +Q
|-----------------|----------------|----------------|---------------------|
|-----------------|----------------|----------------|-11b13========(11)---|
|-----------------|----------------|----------------|---------------------|
|-----------------|----------------|----------------|---------------------|
|-----------------|----------------|----------------|---------------------|
|-----------------|----------------|----------------|---------------------|
|
|  E  E E  E E  E   E  E E  E E  E   E  E E  E E  E    E     E E E   E  E
|-----------------|----------------|----------------|---------------------|
|-----------------|----------------|----------------|---------------------|
|-----------------|----------------|----------------|---------------------|
|-----------------|----------------|----------------|--------8-8-8---8--8-|
|-11-10-8-10-8-10-|-8-10-8-10-8-10-|-8-10-8-10-8-10-|--8------------------|
|-----------------|----------------|----------------|---------------------|


   +H.                 +H.                 +H.                 H        +Q
|-------------------|-------------------|-------------------|-----------------|
|-(11)--------------|-(11)--------------|-(11)--------------|-11r======(11)---|
|-------------------|-------------------|-------------------|-----------------|
|-------------------|-------------------|-------------------|-----------------|
|-------------------|-------------------|-------------------|-----------------|
|-------------------|-------------------|-------------------|-----------------|
|
|   E   E E  E  E E     E   E E  E  E E     E   E E  E  E E    E E E E   E  E
|-------------------|-------------------|-------------------|-----------------|
|-------------------|-------------------|-------------------|-----------------|
|-------------------|-------------------|-------------------|-----------------|
|-------------------|-------------------|-------------------|----8-8-8---8--8-|
|---8--10-8-11-10-8-|---8--10-8-11-10-8-|---8--10-8-11-10-8-|--8--------------|
|-------------------|-------------------|-------------------|-----------------|


                                                        Gtr I
   +H.                W                W                Q   +H
|-------------------|----------------|----------------|---------------||
|-(11)--------------|----------------|----------------|-2---(2)S======||
|-------------------|----------------|----------------|---------------||
|-------------------|----------------|----------------|---------------||
|-------------------|----------------|----------------|---------------||
|-------------------|----------------|----------------|---------------||
|
|   E   E E  E E  E   E  E E  E E  E   E  E E  E E  E   E E  E  E E E
|-------------------|----------------|----------------|---------------||
|-------------------|----------------|----------------|---------------||
|-------------------|----------------|----------------|---------------||
|-------------------|----------------|----------------|---8--8--8-8-8-||
|--11--10-8-10-8-10-|-8-10-8-10-8-10-|-8-10-8-10-8-10-|-8-------------||
|-------------------|----------------|----------------|---------------||


 Chorus
  $
  N.C.
   Q     E  Q    E     Q.        Q.
|-------------------|---------------------|
|-14----14----------|-13------------------|
|----------13--(13)-|-----------15--------|
|-------------------|---------------------|
|-------------------|---------------------|
|-------------------|---------------------|
|
| Gtr II
|  E  Q     Q    E     Q     E   Q     E
|-------------------|---------------------|
|-------------------|---------------------|
|-------------------|-12---(12)-13---(13)-|
|--8s10----10---10--|---------------------|
|-------------------|---------------------|
|-------------------|---------------------|


   Q      E   Q    E     H         Q
|---------------------|------------------|
|---------------------|------------------|
|-12----(12)-13--(13)-|-10---------8-----|
|---------------------|------------------|
|---------------------|------------------|
|---------------------|------------------|
|
|  E  Q       Q    E     Q    E  Q    E
|---------------------|------------------|
|---------------------|-11--(11)-8---(8)-|
|---------------------|------------------|
|--8s10------10---10--|------------------|
|---------------------|------------------|
|---------------------|------------------|


  E  Q   Q   E    E  Q       Q    E     E  E  E  E Q        H          Q
|--------------|---------------------|------------------|---------------------|
|--------------|---------------------|------------------|---------------------|
|-8s10--10--10-|-10s12------12---12--|-12s13s12s13-8----|-/10---------10/-----|
|--------------|---------------------|------------------|---------------------|
|--------------|---------------------|------------------|---------------------|
|--------------|---------------------|------------------|---------------------|
|
| E  Q   Q   E    Q      E   Q    E     E  Q     Q    E     Q    E  Q      E
|--------------|---------------------|------------------|---------------------|
|--------------|---------------------|------------------|--11--(11)-8-----(8)-|
|--------------|-12----(12)-13--(13)-|------------------|---------------------|
|-8s10--10--10-|---------------------|--8s10----10---10-|---------------------|
|--------------|---------------------|------------------|---------------------|
|--------------|---------------------|------------------|---------------------|


    Q     E  Q    E     Q.        Q.
|--------------------|---------------------|
|-/14----14----------|-13------------------|
|-----------13--(13)-|-----------15--------|
|--------------------|---------------------|
|--------------------|---------------------|
|--------------------|---------------------|
|
| Gtr II
|   E  Q     Q    E     Q     E   Q     E
|--------------------|---------------------|
|--------------------|---------------------|
|--------------------|-12---(12)-13---(13)-|
|---8s10----10---10--|---------------------|
|--------------------|---------------------|
|--------------------|---------------------|


                                  To Coda
   Q      E   Q    E     H         Q
|---------------------|-------------------|
|---------------------|-------------------|
|-12----(12)-13--(13)-|-10---------8------|
|---------------------|-------------------|
|---------------------|-------------------|
|---------------------|-------------------|
|
|  E  Q       Q    E     Q    E  Q    E
|---------------------|-------------------|
|---------------------|-11--(11)-8---(8)--|
|---------------------|-------------------|
|--8s10------10---10--|-------------------|
|---------------------|-------------------|
|---------------------|-------------------|


  E  Q   Q   E    Q    E   Q    E    E  Q   Q   E    H.
|--------------|-------------------|--------------|------------------||
|--------------|-------------------|--------------|------------------||
|-8s=5---5---5-|--5----5---5----5--|-5s10--10--10-|-10---------------||
|--------------|-------------------|--------------|------------------||
|--------------|-------------------|--------------|------------------||
|--------------|-------------------|--------------|------------------||
|
| E  Q   Q   E    Q    E   Q    E    E  Q   Q   E    Q     E  Q   E
|--------------|-------------------|--------------|------------------||
|--------------|-------------------|--------------|-11---(11)-8--(8)-||
|--------------|-12--(12)-13--(13)-|--------------|------------------||
|-8s10--10--10-|-------------------|-8s10--10--10-|------------------||
|--------------|-------------------|--------------|------------------||
|--------------|-------------------|--------------|------------------||


 Verse
  N.C.
  Gtr I
   H              +Q        +H.
|-11b13==========(11)----|-(11)--------------|
|------------------------|-------------------|
|------------------------|-------------------|
|------------------------|-------------------|
|------------------------|-------------------|
|------------------------|-------------------|
|
| Gtr III
|  E      E E  E   E   E     E   E E  E E  E
|------------------------|-------------------|
|------------------------|-------------------|
|------------------------|-------------------|
|------------------------|-------------------|
|-11-----10-8-10---8--10-|---8--10-8-10-8-10-|
|------------------------|-------------------|


    >
   +H.                 +H.
|-(11)--------------|-(11)r-----------|
|-------------------|-----------------|
|-------------------|-----------------|
|-------------------|-----------------|
|-------------------|-----------------|
|-------------------|-----------------|
|
|   E   E E  E E  E     E   E E E E E
|-------------------|-----------------|
|-------------------|-----------------|
|-------------------|-----------------|
|-------------------|-------8-8-8-8-8-|
|---8--10-8-10-8-10-|---8-------------|
|-------------------|-----------------|


   W                W                W                 H.
|-----------------|----------------|----------------|--------------|
|-----------------|----------------|----------------|-13s==========|
|-----------------|----------------|----------------|--------------|
|-----------------|----------------|----------------|--------------|
|-----------------|----------------|----------------|--------------|
|-----------------|----------------|----------------|--------------|
|
|  E  E E  E E  E   E  E E  E E  E   E  E E  E E  E    E E E E E E
|-----------------|----------------|----------------|--------------|
|-----------------|----------------|----------------|--------------|
|-----------------|----------------|----------------|--------------|
|-----------------|----------------|----------------|----8-8-8-8-8-|
|-11-10-8-10-8-10-|-8-10-8-10-8-10-|-8-10-8-10-8-10-|--8-----------|
|-----------------|----------------|----------------|--------------|


   >                                      <         >         <       >
   H.                 +H.                 Q.       +Q.        Q.     +Q.
|------------------|-------------------|--------------------|----------------|
|-11---------------|-(11)--------------|--------------------|----------------|
|------------------|-------------------|-10-------(10)------|-8------(8)-----|
|------------------|-------------------|--------------------|----------------|
|------------------|-------------------|--------------------|----------------|
|------------------|-------------------|--------------------|----------------|
|
|  E   E E  E  E E     E   E E  E  E E    E   E E   E   E E   E  E E  E  E E
|------------------|-------------------|--------------------|----------------|
|------------------|-------------------|--------------------|----------------|
|------------------|-------------------|--------------------|----------------|
|------------------|-------------------|--------------------|----8-8--8--8-8-|
|--8--10-8-11-10-8-|---8--10-8-11-10-8-|--8--10-8--11--10-8-|-8--------------|
|------------------|-------------------|--------------------|----------------|


   Q    Q     Q          +Q      Q    Q
|---------------------|--------------------|
|---------------------|--------------------|
|--5----8----10b11r===|=(10)----10----8----|
|---------------------|--------------------|
|---------------------|--------------------|
|---------------------|--------------------|
|
|  E  E E  E  E     E     E   E  E  E E  E
|---------------------|--------------------|
|---------------------|--------------------|
|---------------------|--------------------|
|---------------------|--------------------|
|-11-10-8-10--8----10-|---8--10--8-10-8-10-|
|---------------------|--------------------|


                            D.S. al Coda
  H          Q          +Q     +Q    Q
|--------------------|---------------------||
|-----------11b12----|-(11)---(11)---2/----||
|-5------------------|---------------------||
|--------------------|---------------------||
|--------------------|---------------------||
|--------------------|---------------------||
|
| E  E E  E  E     E     E  E   E  E E   E
|--------------------|---------------------||
|--------------------|---------------------||
|--------------------|---------------------||
|--------------------|------8---8--8-8---8-||
|-8-10-8-10--8----10-|---8-----------------||
|--------------------|---------------------||


  &
  Gtr I
  E  Q   Q   E    Q    E   Q    E    E  Q   Q   E    H         Q
|--------------|-------------------|--------------|------------------||
|--------------|-------------------|--------------|------------------||
|-8s=5---5---5-|--5----5---5----5--|-5s10--10--10-|-10---------8-----||
|--------------|-------------------|--------------|------------------||
|--------------|-------------------|--------------|------------------||
|--------------|-------------------|--------------|------------------||
|
| Gtr II
| E  Q   Q   E    Q    E   Q    E    E  Q   Q   E    Q    E  Q    E
|--------------|-------------------|--------------|------------------||
|--------------|-------------------|--------------|-11--(11)-8---(8)-||
|--------------|-12--(12)-13--(13)-|--------------|------------------||
|-8s10--10--10-|-------------------|-8s10--10--10-|------------------||
|--------------|-------------------|--------------|------------------||
|--------------|-------------------|--------------|------------------||


 Interlude
  N.C.
   E  E   E    E  E  E     H     Q    E Q  Q  E    H     Q
|----------------------|------------|-----------|-----------|
|----------------------|------------|-----------|-----------|
|--8s13---x---10--8-10-|---5-----3--|-3h5--5--5-|--5-----8--|
|-------(13)s(18)------|------------|-----------|-----------|
|----------------------|------------|-----------|-----------|
|----------------------|------------|-----------|-----------|
|
|  TP                      TP         TP           TP
|  H.                     +H.         H.          +H.
|----------------------|------------|-----------|-----------|
|-11-------------------|-(11)-------|-8---------|-(8)-------|
|----------------------|------------|-----------|-----------|
|----------------------|------------|-----------|-----------|
|----------------------|------------|-----------|-----------|
|----------------------|------------|-----------|-----------|


  E  E   E    E  E  E    H     Q    Q.   Q.      H.
|---------------------|-----------|-----------|--------|
|---------------------|-----------|-----------|--------|
|-8s13---x---10--8-10-|--5-----3--|-----------|--------|
|------(13)s(18)------|-----------|-6----8----|--3-----|
|---------------------|-----------|-----------|--------|
|---------------------|-----------|-----------|--------|
|
| TP                     TP         TP           TP
| H.                    +H.         H.          +H.
|---------------------|-----------|-----------|--------|
|-9-------------------|-(9)-------|-8---------|-(8)----|
|---------------------|-----------|-----------|--------|
|---------------------|-----------|-----------|--------|
|---------------------|-----------|-----------|--------|
|---------------------|-----------|-----------|--------|


   E  Q   Q   E     E   Q   Q   E   E Q  Q  E    H.
|---------------|-----------------|-----------|--------|
|---------------|-----------------|-----------|--------|
|--8s10--10--10-|---8s=10--10--10-|-3s5--5--3-|--5-----|
|--x--x---x---x-|---x---x---x---x-|-x-x--x--x-|--x-----|
|--6s=8---8---8-|---6s==8---8---8-|-1s3--3--1-|--3-----|
|---------------|-----------------|-----------|--------|
|
|  TP               TP              TP           TP
|  H.              +H.              H.          +H.
|---------------|-----------------|-----------|--------|
|-11------------|-(11)------------|-8---------|-(8)----|
|---------------|-----------------|-----------|--------|
|---------------|-----------------|-----------|--------|
|---------------|-----------------|-----------|--------|
|---------------|-----------------|-----------|--------|


  E  Q   Q   E    E   Q   Q   E    E  E  E  E  Q     H.
|--------------|----------------|-----------------|--------||
|--------------|----------------|-----------------|--------||
|-8s10--10--10-|--8s=10--10--10-|-13s15-13s15-13--|-12-----||
|-x--x---x---x-|--x---x---x---x-|--x--x--x--x--x--|--x-----||
|-6s=8---8---8-|--6s==8---8---8-|-11s13-11s13-11--|-10-----||
|--------------|----------------|-----------------|--------||
|
| TP              TP               TP                TP
| H.             +H.               H.               +H.
|--------------|----------------|-----------------|--------||
|-9------------|-(9)------------|--8--------------|-(8)----||
|--------------|----------------|-----------------|--------||
|--------------|----------------|-----------------|--------||
|--------------|----------------|-----------------|--------||
|--------------|----------------|-----------------|--------||


   Bridge
    N.C.
   4/4
    Gtr I
     E  E  E  E  E  E  E  E     E   E E  E  E E  E  E
||--------------------------|-------------------------|
||o-------------------------|-------------------------|
||------8-10-----8-10-----8-|--10-----8-10----8-10----|
||--10-------10-------10----|------10------10------10-|
||o-------------------------|-------------------------|
||--------------------------|-------------------------|
|
|   Gtr IV
|    Q.       Q.       E  E    +W
||--13----------------------|-------------------------|
||o----------11-------11s13-|-(13)--------------------|
||--------------------------|-------------------------|
||--------------------------|-------------------------|
||o-------------------------|-------------------------|
||--------------------------|-------------------------|


   E   E  E  E   E  E E  E    E E    E  E E  E  E E
|--------------------------|------------------------|
|--------------------------|------------------------|
|--8--10-----8--10----8-10-|----8---10----8-10----8-|
|--------10--------10------|-10--------10------10---|
|--------------------------|------------------------|
|--------------------------|------------------------|
|
|  Q.        Q.       E  E    E H..
|-13-----------------------|------------------------|
|-----------11--------9--8-|--9-8-------------------|
|--------------------------|------------------------|
|--------------------------|------------------------|
|--------------------------|------------------------|
|--------------------------|------------------------|


   E   E E  E   E E  E  E     E   E  E E  E  E E  E
|-------------------------|-------------------------|
|-------------------------|-------------------------|
|-10-----8-10-----8-10----|---8--10----8-10----8-10-|
|-----10-------10------10-|---------10------10------|
|-------------------------|-------------------------|
|-------------------------|-------------------------|
|
|  Q.       Q.       E  E    +W
|-13----------------------|-------------------------|
|----------11-------11s13-|-(13)--------------------|
|-------------------------|-------------------------|
|-------------------------|-------------------------|
|-------------------------|-------------------------|
|-------------------------|-------------------------|


   E  E  E  E  E  E  E E    E  E   E  E  E E  E  E
|------------------------|---------------------------||
|------------------------|--------------------------o||
|-----8-10-----8-10----8-|-10------8-10----8-10------||
|-10-------10-------10---|----10--------10------10---||
|------------------------|--------------------------o||
|------------------------|---------------------------||
|
|  Q.       Q.       E E    E  H..
|-13---------------------|---------------------------||
|----------11--------9-8-|--9--8--------------------o||
|------------------------|---------------------------||
|------------------------|---------------------------||
|------------------------|--------------------------o||
|------------------------|---------------------------||


   W           +W
|------------|--------||
|------------|--------||
|--8---------|-(8)----||
|------------|--------||
|------------|--------||
|------------|--------||
|
|  >
| +W            W
|------------|--------||
|-(8)--------|--------||
|------------|--------||
|------------|--------||
|------------|--------||
|------------|--------||
|
| Gtr V
|               <
|               TP
|  W            W
|------------|--x\----||
|------------|--x\----||
|------------|--x\----||
|------------|--x-----||
|------------|--x\----||
|------------|--x\----||


 Verse
  N.C.
  Gtr I
   E  E  E  Q   E  Q       +H.       Q     Q.    Q.    Q      +W
|-----------------------|---------------|------------------|-------------|
|-----------------------|---------------|------------------|-------------|
|-12s13s12-12---8-10----|-(10)------10s=|=15----13----12---|-(12)--------|
|--x--x--x--x---x--x----|--(x)-------x--|--x-----x-----x---|--(x)--------|
|-10s11s10-10---6--8----|--(8)-------8s=|=13----11----10---|-(10)--------|
|-----------------------|---------------|------------------|-------------|
|
| Gtr IV
|  Q.       Q.     E  E    +W              Q.    Q.    E E     E  H..
|-13--------------------|---------------|-13---------------|-------------|
|----------11-----11s13-|-(13)----------|-------11-----9-8-|---9--8------|
|-----------------------|---------------|------------------|-------------|
|-----------------------|---------------|------------------|-------------|
|-----------------------|---------------|------------------|-------------|
|-----------------------|---------------|------------------|-------------|


   E  E  E  Q   E  Q       +H.       Q     Q.     Q.    Q      +W
|-----------------------|---------------|-------------------|-------------|
|-----------------------|---------------|-------------------|-------------|
|-12s13s12-12---8-10----|-(10)------10s=|=15----/17----12---|-(12)--------|
|--x--x--x--x---x--x----|--(x)-------x--|--x------x-----x---|--(x)--------|
|-10s11s10-10---6--8----|--(8)-------8s=|=13----/15----10---|-(10)--------|
|-----------------------|---------------|-------------------|-------------|
|
|  Q.       Q.     E  E    +W              Q.     Q.    E E     E  H..
|-13--------------------|---------------|-13----------------|-------------|
|----------11-----11s13-|-(13)----------|--------11-----9-8-|---9--8------|
|-----------------------|---------------|-------------------|-------------|
|-----------------------|---------------|-------------------|-------------|
|-----------------------|---------------|-------------------|-------------|
|-----------------------|---------------|-------------------|-------------|


   E  E  E  Q   E  Q       +H.       Q     Q.    Q.    Q      +W
|-----------------------|---------------|------------------|-------------|
|-----------------------|---------------|------------------|-------------|
|-12s13s12-12---8-10----|-(10)------10s=|=15----13----12---|-(12)--------|
|--x--x--x--x---x--x----|--(x)-------x--|--x-----x-----x---|--(x)--------|
|-10s11s10-10---6--8----|--(8)-------8s=|=13----11----10---|-(10)--------|
|-----------------------|---------------|------------------|-------------|
|
|  Q.       Q.     E  E    +W              Q.    Q.    E E     E  H..
|-13--------------------|---------------|-13---------------|-------------|
|----------11-----11s13-|-(13)----------|-------11-----9-8-|---9--8------|
|-----------------------|---------------|------------------|-------------|
|-----------------------|---------------|------------------|-------------|
|-----------------------|---------------|------------------|-------------|
|-----------------------|---------------|------------------|-------------|


   E  E  E  Q  E  Q       +H.            Q
|----------------------|----------------------|
|----------------------|----------------------|
|-12s13s12-12--8-10----|-(10)-----------10----|
|--x--x--x--x--x--x----|--(x)------------x----|
|-10s11s10-10--6--8----|--(8)------------8----|
|----------------------|----------------------|
|
|                    ~~~~~~~~~~~~~~~~~~~~~~~~~
|  Q.       Q  E  E  E    +Q    Q.    Q     E
|----------------------|----------------------|
|----------------------|----------------------|
|--8--------8--8s12-12-|-(12)--12----12----12-|
|----------------------|----------------------|
|----------------------|----------------------|
|----------------------|----------------------|


   E   Q   Q.     E  E    +E   Q.       Q     Q
|----------------------|-----------------------------||
|----------------------|-----------------------------||
|-15--15--15-----17-17-|-(17)-17-------17----17\-----||
|--x---x---x------x--x-|--(x)--x--------x-----x------||
|-13--13--13-----15-15-|-(15)-15-------15----15\-----||
|----------------------|-----------------------------||
|
|                    ~~~~~~~~~~~~~~~~~~~~~~~~~~~~~~~
|  Q.      Q   E  E  E    +Q       Q.      Q      E
|----------------------|-----------------------------||
|----------------------|-----------------------------||
|--8-------8---8s12-12-|-(12)-----12------12-----12--||
|----------------------|-----------------------------||
|----------------------|-----------------------------||
|----------------------|-----------------------------||


 Outro
  N.C.
  Q    Q     Q     E  E     Q      Q     Q   E  +E
|-----------------------|---------------------------|
|-----------------------|---------------------------|
|-5----5-----5-----5s17-|--17-----17----17--17-(17)s|
|-x----x-----x-----x--x-|---x------x-----x---x--(x)-|
|-3----3-----3-----3s15-|--15-----15----15--15-(15)s|
|-----------------------|---------------------------|
|
| E  Q    E  E  E  E  E    +E   Q     E  Q   Q
|-----------------------|---------------------------|
|-----------------------|---------------------------|
|-----------------------|---------------------------|
|-----------------------|---------------------------|
|-8s11---11-11-11-10-10-|-(10)-10----10-10--10------|
|-----------------------|---------------------------|


   Q     Q     Q     Q        Q      Q     Q    Q
|-------------------------|--------------------------|
|-------------------------|--------------------------|
|-18----18----18----15----|--15-----15----15---15----|
|--x-----x-----x-----x----|---x------x-----x----x----|
|-16----16----16----13----|--13-----13----13---13----|
|-------------------------|--------------------------|
|
|  E  Q     E  E  E  E  E    +E   Q     E  E E  E E
|-------------------------|--------------------------|
|-------------------------|--------------------------|
|-------------------------|--------------------------|
|-------------------------|--------------------------|
|--8s11----11-11-11-10-10-|-(10)-10----10-10s8--8-8--|
|-------------------------|--------------------------|


  Q    Q     Q     E  E     Q      Q     Q   E  +E
|-----------------------|---------------------------|
|-----------------------|---------------------------|
|-5----5-----5-----5s17-|--17-----17----17--17-(17)s|
|-x----x-----x-----x--x-|---x------x-----x---x--(x)-|
|-3----3-----3-----3s15-|--15-----15----15--15-(15)s|
|-----------------------|---------------------------|
|
| E  Q    E  E  E  E  E    +E   Q     E  Q   Q
|-----------------------|---------------------------|
|-----------------------|---------------------------|
|-----------------------|---------------------------|
|-----------------------|---------------------------|
|-8s11---11-11-11-10-10-|-(10)-10----10-10--10------|
|-----------------------|---------------------------|


                     TP       TP
   Q     Q     E  E  Q        W
|-------------------------|------------------------|
|-------------------------|------------------------|
|-18----18----18s20-20----|--20--------------------|
|--x-----x-----x--x--x----|---x--------------------|
|-16----16----16s18-18----|--18--------------------|
|-------------------------|------------------------|
|
|  E  Q     E  E  E  E  E    +E   Q   E E  E  Q
|-------------------------|------------------------|
|-------------------------|------------------------|
|-------------------------|------------------------|
|-------------------------|------------------------|
|--8s11----11-11-11-10-10-|-(10)-10--10-8s13-13\---|
|-------------------------|------------------------|


  N.C.
   E  E  E  E  E  E  E  E    +E   Q   Q.      Q
|----13-------------------|----------------------|
|----------13-16-14-------|----------------------|
|-10----10----------15-13-|-(13)-15----------13--|
|-------------------------|----------17----------|
|-------------------------|----------------------|
|-------------------------|----------------------|
|
|  E  Q     E  E  E  E  E    +E   Q   E   Q   Q
|-------------------------|----------------------|
|-------------------------|----------------------|
|-------------------------|----------------------|
|-------------------------|----------------------|
|--8s11----11-11-11-10-10-|-(10)-10--10--10--10--|
|-------------------------|----------------------|


   Q.     Q.        Q       +H.             Q
|------------------------|------------------------|
|------------------------|------------------------|
|-12------8---------5----|--(5)-------------5/----|
|------------------------|------------------------|
|------------------------|------------------------|
|------------------------|------------------------|
|
|  E  Q   E   E  E  E  E    +E   Q   E  E E E  E
|------------------------|------------------------|
|------------------------|------------------------|
|------------------------|------------------------|
|------------------------|------------------------|
|--8s11--11--11-11-10-10-|-(10)-10--10-10s8-8--8--|
|------------------------|------------------------|


   E  E  E  E  E  E  E  E    +E   Q   Q.      Q
|----13-------------------|----------------------|
|----------13-16-14-------|----------------------|
|-10----10----------15-13-|-(13)-15--12------13--|
|-------------------------|----------------------|
|-------------------------|----------------------|
|-------------------------|----------------------|
|
|  E  Q     E  E  E  E  E    +E   Q   E   Q   Q
|-------------------------|----------------------|
|-------------------------|----------------------|
|-------------------------|----------------------|
|-------------------------|----------------------|
|--8s11----11-11-11-10-10-|-(10)-10--10--10--10--|
|-------------------------|----------------------|


   Q.     Q.        Q       +H.              Q
|------------------------|------------------------|
|------------------------|------------------------|
|-12------8---------5----|--(5)--------------5/---|
|------------------------|------------------------|
|------------------------|------------------------|
|------------------------|------------------------|
|
|  E  Q   E   E  E  E  E    +E   Q   E E  E  Q
|------------------------|------------------------|
|------------------------|------------------------|
|------------------------|------------------------|
|------------------------|------------------------|
|--8s11--11--11-11-10-10-|-(10)-10--10-8s13-13\---|
|------------------------|------------------------|


   E  E  E  E  E  E  E  E    +E   Q   Q.      Q
|----13-------------------|----------------------|
|----------13-16-14-------|----------------------|
|-10----10----------15-13-|-(13)-15--12------13--|
|-------------------------|----------------------|
|-------------------------|----------------------|
|-------------------------|----------------------|
|
|  E  Q     E  E  E  E  E    +E   Q   E   Q   Q
|-------------------------|----------------------|
|-------------------------|----------------------|
|-------------------------|----------------------|
|-------------------------|----------------------|
|--8s11----11-11-11-10-10-|-(10)-10--10--10--10--|
|-------------------------|----------------------|


   Q.     Q.        Q       +H.             Q
|------------------------|------------------------|
|------------------------|------------------------|
|-12------8---------5----|--(5)-------------5/----|
|------------------------|------------------------|
|------------------------|------------------------|
|------------------------|------------------------|
|
|  E  Q   E   E  E  E  E    +E   Q   E  E E E  E
|------------------------|------------------------|
|------------------------|------------------------|
|------------------------|------------------------|
|------------------------|------------------------|
|--8s11--11--11-11-10-10-|-(10)-10--10-10s8-8--8--|
|------------------------|------------------------|


   E  E  E  E  E  E  E  E    +E   Q   Q.      Q
|----13-------------------|----------------------|
|----------13-16-14-------|----------------------|
|-10----10----------15-13-|-(13)-15--12------13--|
|-------------------------|----------------------|
|-------------------------|----------------------|
|-------------------------|----------------------|
|
|  E  Q     E  E  E  E  E    +E   Q   E   Q   Q
|-------------------------|----------------------|
|-------------------------|----------------------|
|-------------------------|----------------------|
|-------------------------|----------------------|
|--8s11----11-11-11-10-10-|-(10)-10--10--10--10--|
|-------------------------|----------------------|


   ~~~      ~~       ~~           ~~     ~~~
   Q     E  Q     E  Q        E   Q   E  Q     Q
|-------------------------|-------------------------|
|-------------------------|-------------------------|
|-12----13-12----13-12----|--13--12--13-12----------|
|-------------------------|-------------------13----|
|-------------------------|-------------------------|
|-------------------------|-------------------------|
|
|  E  Q     E  E  E  E  E    +E   Q   E  E  E  Q
|-------------------------|-------------------------|
|-------------------------|-------------------------|
|-------------------------|-------------------------|
|-------------------------|-------------------------|
|--8s11----11-11-11-10-10-|-(10)-10--10--8s13-13\---|
|-------------------------|-------------------------|


                                      >
   H         +H        +W            +W            +W
|-11b13=====(11)----|-(11)--------|-(11)--------|-(11)----*|
|-------------------|-------------|-------------|---------*|
|-------------------|-------------|-------------|---------*|
|-------------------|-------------|-------------|---------*|
|-------------------|-------------|-------------|---------*|
|-------------------|-------------|-------------|---------*|
|
|  >
|  W                   +W            +W            +W
|-------------------|-------------|-------------|---------*|
|-------------------|-------------|-------------|---------*|
|-12----------------|-(12)--------|-(12)--------|-(12)----*|
|--x----------------|--(x)--------|--(x)--------|--(x)----*|
|-10----------------|-(10)--------|-(10)--------|-(10)----*|
|-------------------|-------------|-------------|---------*|



Duration Legend
---------------
W - whole; H - half; Q - quarter; E - 8th; S - 16th; T - 32nd; X - 64th; a - acciaccatura
+ - note tied to previous; . - note dotted; .. - note double dotted
Uncapitalized letters represent notes that are staccato (1/2 duration)
Irregular groupings are notated above the duration line
Duration letters will always appear directly above the note/fret number it represents the
duration for.  Duration letters with no fret number below them represent rests.  Multi-
bar rests are notated in the form Wxn, where n is the number of bars to rest for.  Low
melody durations appear below the staff

Tablature Legend
----------------
 h   - hammer-on
 p   - pull-off
 b   - bend
 pb  - pre-bend
 r   - bend release (if no number after the r, then release immediately)
 /\  - slide into or out of (from/to "nowhere")
 s   - legato slide
 S   - shift slide
 - natural harmonic
[n]  - artificial harmonic
n(n) - tapped harmonic
 ~   - vibrato
 tr  - trill
 T   - tap
 TP  - trem. picking
 PM  - palm muting
\n/  - tremolo bar dip; n = amount to dip
 \n  - tremolo bar down
 n/  - tremolo bar up
/n\  - tremolo bar inverted dip
 =   - hold bend; also acts as connecting device for hammers/pulls
 <> - volume swell (louder/softer)
 x   - on rhythm slash represents muted slash
 o   - on rhythm slash represents single note slash

Misc Legend
-----------
 |  - bar
||  - double bar
||o - repeat start
o|| - repeat end
*|  - double bar (ending)
 :  - bar (freetime)
 $  - Segno
 &  - Coda
Tempo markers -  = BPM(8/16=s8/s16), where s8 = swing 8ths, s16 = swing 16ths

Добавлено: 17.08.2013
Другие материалы по этой песне:
  • Аккорды и текст

Страница создана 01.03.2012
http://primanota.ru/circa-survive/the-great-golden-baby-chords.htm
Привет, Гость.
Предлагаем пройти революционный курс по гитаре.
Подарок от PrimaNota.Ru, забирай!