PrimaNota.ru - самый крупный в мире бесплатный архив песенных текстов, аккордов, табулатур и нот


Circa Survive - On Letting Go - текст песни, таба, видео

Регистрация Запомнить меня
Войти через:  Facebook Google Twitter Vk Yandex Mail.ru

Circa Survive - On Letting Go - текст песни, таба, видео

Печатать
Просмотров: 119
  (00:00)   (00:02)      
Eb|-----------12---|
Bb|-7h8------------|
Gb|----------------|
Db|----------------|
Ab|----------------|
Eb|----------------|
    
    (00:03)    (00:05)   (00:06)
Eb|--------------------------------|
Bb|--17----------13--------12------|
Gb|--------------------------------|
Db|--------------------------------|
Ab|--------------------------------|
Eb|--------------------------------|


    (00:14)
Eb|----------------|-------14-15----|
Bb|-1515—13h12-----|-12h13----------|
Gb|----------------|----------------|
Db|----------------|----------------|
Ab|----------------|----------------|
Eb|----------------|----------------|



Добавлено: 05.07.2012
Другие материалы по этой песне:
  • Аккорды и текст

Страница создана 22.04.2012
http://primanota.ru/circa-survive/on-letting-go-chords.htm
Привет, Гость.
Предлагаем пройти революционный курс по гитаре.
Подарок от PrimaNota.Ru, забирай!