PrimaNota.ru - самый крупный в мире бесплатный архив песенных текстов, аккордов, табулатур и нот


Circa Survive - Living Together - текст песни, таба, видео

Регистрация Запомнить меня
Войти через:  Facebook Google Twitter Vk Yandex Mail.ru

Circa Survive - Living Together - текст песни, таба, видео

Печатать
Просмотров: 174
Уроки эстрадного вокала в Санкт-Петербурге
Tuning: Half-Step Down
Eb Ab Db Gb Bb Eb

Intro
Guitar 1
|-----------------------------------------------------------|
|-12----12---14----14-----15--------------------------------|
|-14b---14r--16b---16r----17r-------------------------------|
|-----------------------------------------------------------|
|-----------------------------------------------------------|
|-----------------------------------------------------------| x2
Every note that has bends goes up a full step to match the pitch of the note on the Bb 
Listen for the rhythm.


|-----------------------------------------------------------|
|-12----12-------7----7-------------------------------------|
|-14b---14r---9--9b---9r---4---7-6--4--2-----2/4-7--6--4----|
|-----------------------------------------------------------|
|-----------------------------------------------------------|
|-----------------------------------------------------------|

Guitar 2
|-----4---0------0---------0-----------2--------------------|
|----------------------------------------2------------------|
|-------------------2---------2-----2-----------------------|
|-4-----------0--------4---------2h4------------------------|
|-----------------------------------------------------------|
|-----------------------------------------------------------| x3
Don't tell me that there are notes missing here, i already know it. They're very hard to 
I did the best I could.


Verse 1 (It starts out like a season in reverse...):

|------4----0------0-----0-----------2----------------------|
|--------------------------------------2--------------------|
|---2-----------------2-----2------2------------------------|
|-4-------0----0---------------2h4--------------------------|
|-----------------------------------------------------------|
|-----------------------------------------------------------| x2

|-12--------------------12--------0-------------------------|
|-9----------2----------9---------0-------------------------|
|-9----------2----------9---------6-------------------------|
|-11---------4----------11--------7-------------------------|
|------------5----------------------------------------------|
|-----------------------------------------------------------|

Chorus:

|-----------------------------------------12br------------------|
|-10--9-----10--9------12b--r12--12--12--------10--9--9-10--5---|
|-------11--------11--------------------------------------------|
|---------------------------------------------------------------|
|---------------------------------------------------------------|
|---------------------------------------------------------------|

|-----------------------------------------12br------------------|
|-10--9-----10--9------12b--r12--12--12--------10--9--9-10--12--|
|-------11--------11--------------------------------------------|
|---------------------------------------------------------------|
|---------------------------------------------------------------|
|---------------------------------------------------------------|

|-----------------------------------------------------------|
|---------------------------------/10-9-9-9-7-7-7-5-5-5-----|
|-----------------------------------------------------------|
|-----------------------------------------------------------|
|-2h4p2p0----------2h4p2p0-----2----------------------------|
|---------2p0-2------------2p0------------------------------|


|-----------------------------------------------------------|
|-10-9------10-9----9b--------------------------------------|
|-------11-------11-----------------------------------------|
|-----------------------------------------------------------|
|-----------------------------------------------------------|
|-----------------------------------------------------------|


I might try and figure out the rest another time. If you'd like to save me the trouble 
doing it, or just talk about how awesome Circa Survive is, AIM me: snakesonaplane01
Добавлено: 21.05.2012
Другие материалы по этой песне:

Страница создана 22.02.2012
http://primanota.ru/circa-survive/living-together-chords.htm
Привет, Гость.
Предлагаем пройти революционный курс по гитаре.
Подарок от PrimaNota.Ru, забирай!