PrimaNota.ru - самый крупный в мире бесплатный архив песенных текстов, аккордов, табулатур и нот


Circa Survive - Julian - текст песни, таба, видео

Регистрация Запомнить меня
Войти через:  Facebook Google Twitter Vk Yandex Mail.ru

Circa Survive - Julian - текст песни, таба, видео

Печатать
Просмотров: 122
Okay, so, here it is. A pretty accurate tab of Julian (acoustic) by Circa Survive


Strum and such.. listening to the song will help you get the pattern. It's not hard.

E|------------------------------------------------------------------------|
B|------------------------------------------------------------------------|
G|------------------------------------------------------------------------|
D|--------------------7--------7--------4--------9--------7--------7------|
A|---0---2---5-/------9--------7--------5--------10-------9--------7------|
E|--------------------10-------9--------7--------12-------10-------9------|



E|------------------------------------------------------------------------|
B|------------------------------------------------------------------------|
G|-----------------------------------------------4------------6-----------|
D|--------------------7--------7--------4--------5------------7-----------|
A|---0---2---5-/------9--------7--------5--------x------------x-----------|
E|--------------------10-------9--------7--------3------------5-----------|




This is my first tab, I want to thank Allan and Ivana for helping me figure
out song, and Anthony Green and Circa Survive for everything they've done
and will continue to do. You guys kick ass!

-SiRSluRpEE


Добавлено: 21.04.2012
Другие материалы по этой песне:

Страница создана 25.02.2012
http://primanota.ru/circa-survive/julian-chords.htm
Привет, Гость.
Предлагаем пройти революционный курс по гитаре.
Подарок от PrimaNota.Ru, забирай!