PrimaNota.ru - самый крупный в мире бесплатный архив песенных текстов, аккордов, табулатур и нот


Cinema Strange - One Time One Summer - таба, видео

Регистрация Запомнить меня
Войти через:  Facebook Google Twitter Vk Yandex Mail.ru

Cinema Strange - One Time One Summer - таба, видео

Печатать
Просмотров: 75
Cinema Strange
One Time, One Summer...

e|-7-7---7-7---|-6-6---6-6---|-7-7---7-7---|-6--------| -1*
B|-9-9---9-9---|-9-9---9-9---|-9-9---9-9---|-9--------|
G|-9-9---9-9---|-9-9---9-9---|-9-9---9-9---|-9--------|
D|-------------|-------------|-------------|----------|
A|-------------|-------------|-------------|----------|
E|-------------|-------------|-------------|----------|

e|---7-7---7-7-|---6-6---6-6-|---7-7---7-7-|-6--------| -1*
B|---9-9---9-9-|---9-9---9-9-|---9-9---9-9-|-9--------|
G|---9-9---9-9-|---9-9---9-9-|---9-9---9-9-|-9--------|
D|-------------|-------------|-------------|----------|
A|-------------|-------------|-------------|----------|
E|-------------|-------------|-------------|----------|

e|7-7-7-7-7-7-7-7-|-4-4-4-4-4-4-4-4-|-3-3-3-3-4-4-4-4-|---------3-3-3-3-|
B|----------------|-----------------|-----------------|-5-5-5-5---------|
G|----------------|-----------------|-----------------|-----------------|
D|----------------|-----------------|-----------------|-----------------|
A|----------------|-----------------|-----------------|-----------------|
E|----------------|-----------------|-----------------|-----------------|

e|--------6-6-6-6-| Verse 2*
B|4-4-4-4---------|
G|----------------|
D|----------------|
A|----------------|
E|----------------|

Drums

Verse 2*

e|11-11-11-11-------------|-------------------------|-12-12-12-12------------|
B|------------12-12-12-12-|-11-11-11-11-12-12-12-12-|-------------12-12-12-12|
G|------------------------|-------------------------|------------------------|
D|------------------------|-------------------------|------------------------|
A|------------------------|-------------------------|------------------------|
E|------------------------|-------------------------|------------------------|

e|--------------------| Chorus 2*
B|11-11-11-11-8-8-8-8-|
G|--------------------|
D|--------------------|
A|--------------------|
E|--------------------|


e|----11----|-----11----|-----11----|-----10----|-----10----| Brigde 1*
B|12--------|-12--------|-12--------|-12--------|-12--------|
G|----------|-----------|-----------|-----------|-----------|
D|----------|-----------|-----------|-----------|-----------|
A|----------|-----------|-----------|-----------|-----------|
E|----------|-----------|-----------|-----------|-----------|

Verse 2*

e|---------------12-|--------------------12-|--------------------12-|
B|----12------12----|-------12--------12----|-------12--------12----|
G|9-9-----9-9-------|-12-12-----12-12-------|-11-11-----11-11-------|
D|------------------|-----------------------|-----------------------|
A|------------------|-----------------------|-----------------------|
E|------------------|-----------------------|-----------------------|

e|----------------12-|-3*
B|-----12------12----|
G|-8-8-----8-8-------|
D|-------------------|
A|-------------------|
E|-------------------|

e|--------------8-|--------------8-|--------------8-|--------------8-| -1*
B|-----8------8---|-----8------8---|-----8------8---|-----8------8---|
G|-5-5----5-5-----|-8-8----8-8-----|-7-7----7-7-----|-4-4----4-4-----|
D|----------------|----------------|----------------|----------------|
A|----------------|----------------|----------------|----------------|
E|----------------|----------------|----------------|----------------|

e|--------------6-|--------------6-|--------------6-|--------------6-| -2*
B|-----6------6---|-----6------6---|-----6------6---|-----6------6---|
G|-3-3----3-3-----|-6-6----6-6-----|-5-5----5-5-----|-2-2----2-2-----|
D|----------------|----------------|----------------|----------------|
A|----------------|----------------|----------------|----------------|
E|----------------|----------------|----------------|----------------|

e|--------------6-|--------------6-|--------------6-|--------------6-| -1*
B|-----6------6---|-----6------6---|-----6------6---|-----6------6---|
G|-3-3----3-3-----|-2-2----2-2-----|-3-3----3-3-----|-2-2----2-2-----|
D|----------------|----------------|----------------|----------------|
A|----------------|----------------|----------------|----------------|
E|----------------|----------------|----------------|----------------|

e|--------------8-|--------------8-|--------------8-|--------------8-| -1*
B|-----8------8---|-----8------8---|-----8------8---|-----8------8---|
G|-5-5----5-5-----|-4-4----4-4-----|-5-5----5-5-----|-4-4----4-4-----|
D|----------------|----------------|----------------|----------------|
A|----------------|----------------|----------------|----------------|
E|----------------|----------------|----------------|----------------|

e|----------------12-|----------------12-| -2*
B|-----12------12----|-----12------12----|
G|-9-9-----9-9-------|-8-8-----8-8-------|
D|-------------------|-------------------|
A|-------------------|-------------------|
E|-------------------|-------------------|

e|---------------12-|--------------------12-|--------------------12-|
B|----12------12----|-------12--------12----|-------12--------12----|
G|9-9-----9-9-------|-12-12-----12-12-------|-11-11-----11-11-------|
D|------------------|-----------------------|-----------------------|
A|------------------|-----------------------|-----------------------|
E|------------------|-----------------------|-----------------------|

e|----------------12-| -2*
B|-----12------12----|
G|-8-8-----8-8-------|
D|-------------------|
A|-------------------|
E|-------------------|

lala...

e|---------------12-|-----------------| -3*
B|-----9------12----|-----9------11-9-|
G|-9-9----9-9-------|-8-8----8-8------|
D|------------------|-----------------|
A|------------------|-----------------|
E|------------------|-----------------|

e|---------------------|---------------------| -1*
B|-11-9-11-9-11-9-11-9-|-11-9-11-9-11-9-11-9-|
G|---------------------|---------------------|
D|---------------------|---------------------|
A|---------------------|---------------------|
E|---------------------|---------------------|

e|---------------12-|-----------------| -3*
B|-----9------12----|-----9------11-9-|
G|-9-9----9-9-------|-8-8----8-8------|
D|------------------|-----------------|
A|------------------|-----------------|
E|------------------|-----------------|

e|---------------------|---------------------| -1*
B|-11-9-11-9-11-9-11-9-|-11-9-11-9-11-9-11-9-|
G|---------------------|---------------------|
D|---------------------|---------------------|
A|---------------------|---------------------|
E|---------------------|---------------------|

Verse 4*

Chorus 2*

Brigde 1*


************************************

| /   slide up
| \   slide down
| h   hammer-on
| p   pull-off
| ~   vibrato
| +   harmonic
| x   Mute note
| b   Bend
| pb  Pre-bend
| br  Bend release
| pbr Pre-bend release
| brb Bend release bend

************************************
Добавлено: 25.09.2013
Другие материалы по этой песне:
  • Аккорды и текст

Страница создана 25.09.2013
http://primanota.ru/cinema-strange/one-time-one-summer-chords.htm
Привет, Гость.
Предлагаем пройти революционный курс по гитаре.
Подарок от PrimaNota.Ru, забирай!