PrimaNota.ru - самый крупный в мире бесплатный архив песенных текстов, аккордов, табулатур и нот


Cinema Strange - Legs And Tarpaulin - текст песни, таба, видео

Регистрация Запомнить меня
Войти через:  Facebook Google Twitter Vk Yandex Mail.ru

Cinema Strange - Legs And Tarpaulin - текст песни, таба, видео

Печатать
Просмотров: 137
Artist:		Cinema Strange
Song:	 	Legs and Tarpaulin
Album:		The Astonished Eyes of Evening

Tabbed by:	Stefan HBTS (BLdRED)
Web:		http://www.youtube.com/user/bldred
Date:		March 11th 2010

Tuning: 	EADGBE (regular)


. = palm mute
/ = slide
h = hammer on
p = pull off


intro A 1x
E|-------------------------------------|
B|-------------------------------------|
G|---6-5--------6-5--------6-5---6-5---|
D|-7-----6-66-7-----6-66-7-----7-----6-|
A|-------------------------------------|
E|-------------------------------------|


Intro B 1x
E|-------------------------------------|
B|-------------------------------------|
G|-------------------6p5-------6p5-----|
D|-6-7-6-4-6-----6-7-----6-6-7-----6---|
A|-----------7-6-----------------------|
E|-------------------------------------|


Intro C 1x
E|-------------------------------------|
B|---------------9-10-9-7-9------------|
G|--------------------------9-8--------|
D|-6-7-6-4-6---------------------------|
A|-----------7-6-----------------------|
E|-------------------------------------|


Intro D 2x
E|-------------------------------------|
B|-------------------------------------|
G|-----6p5-------6p5-------------------|
D|-6-7-----6-6-7-----6-6-7-6-4-6-------|
A|-------------------------------7-6---|
E|-------------------------------------|


Intro E 1x
E|-------------------------------------|
B|-9-10-9-7-9--------------------------|
G|------------9-8-----6p5-------6p5----|
D|----------------6-7-----6-6-7-----6-6|
A|-------------------------------------|
E|-------------------------------------|


Intro F 2x
E|-------------------------------------|
B|-9---------10-9-999------------------|
G|---9-8-6-8----------9-8-6-8----------|
D|----------------------------7-666----|
A|-------------------------------------|
E|-------------------------------------|


Intro G 1x
E|------------------------------------------------|
B|-------------------------------------------13---|
G|-----6p5-------6p5------------------------------|
D|-6-7-----6-667-----6-667-776-667-776-667-------6|
A|------------------------------------------------|
E|------------------------------------------------|


Intro H 1x
E|-------------------------------------|
B|-------------------------------------|
G|-4/7-6-6h7p6-4/7---------------------|
D|-----------------4/7--6-3-4-6-4------|
A|--------------------------------4----|
E|-------------------------------------|


Intro I 1x
E|-------------------------------------|
B|-------------------------------------|
G|--4-6-7--6-4-6--667-776-6676---------|
D|----------------------------67-------|
A|-------------------------------------|
E|-------------------------------------|


Verse part1 1x
E|-------------------------------------|
B|-------------------------------------|
G|-----------6-4---7-------------------|
D|-4-4-6-7-4-----6---4-4-6-7-4-3-4-7-6-|
A|-------------------------------------|
E|-------------------------------------|


E|-------------------------------------|
B|-------------------------------------|
G|-----------6-4---7-6-6-764-----------|
D|-4-4-6-7-4-----6-----------6-7-------|
A|-------------------------------------|
E|-------------------------------------|


Verse part2 (mute) 2x
E|-------------------------------------|
B|-------------------------------------|
G|-----------6644--77------------------|
D|-4-4-6-7-4-----66--4-4-6-7-4-33447766|
A|-------------------------------------|
E|-------------------------------------|
   . . . . . ......... . . . . ........

E|-------------------------------------|
B|-------------------------------------|
G|-----------6644--776-6-764-----------|
D|-4-4-6-7-4-----66----------6-7-------|
A|-------------------------------------|
E|-------------------------------------|
   . . . . . ........

Chorus 2x
E|-------------------------------------|
B|-------------------------------------|
G|-------------------------------------|
D|------------------------------3-4----|
A|-----------------------5-4444--------|
E|-2-245-2-245-245-2-245---------------|


Chorus part2 2x
E|---------------------------------------------|
B|---------------------------------------------|
G|---------------------------------------------|
D|-7777-6-66-7777-9-11-7777-6-66-99-11-1212-11-|
A|---------------------------------------------|
E|---------------------------------------------|
   .... . .. .... .    .... . .. .. .  . .  . 

E|---------------------------------------------|
B|---------------------------------------------|
G|---------------------------------------------|
D|-7777-6-66-7777-9-11-7777-6-66-11-9p89p86----|
A|---------------------------------------------|
E|---------------------------------------------|
   .... . .. .... . .  .... . ..

bridge start 1x
E|-------------------------------------|
B|-------------------------------------|
G|-------------------------------------|
D|-11-9-7-6-4--------------------------|
A|-------------------------------------|
E|-------------------------------------|

bride part1 3x
E|---------------------------------------------|
B|---------------------------------------------|
G|---------------------------------------------|
D|-3---3-4--3---3--4-4444-7-7777-6-6666-9-9999-|
A|---4--------4--------------------------------|
E|---------------------------------------------|


E|-------------------------------------|
B|-------------------------------------|
G|-------------------------------------|
D|-12-12-12-12-12-12-11----------------|
A|-------------------------------------|
E|-------------------------------------|


bridge part2 4x
E|-------------------------------------|
B|-------------------------------------|
G|-------------------------------------|
D|-4-11-11-10-10101010-7-7777-6-6666---|
A|-------------------------------------|
E|-------------------------------------|


Solo part1 2x
E|-----------------------------------------------------------------|
B|-7/10-10-7-9-9999-12-12121212-10-9--7/10-10-7-9-9999-12-15-12-14-|
G|-----------------------------------------------------------------|
D|-----------------------------------------------------------------|
A|-----------------------------------------------------------------|
E|-----------------------------------------------------------------|


Solo part2 1x
E|---10--10-----9-----9--9-----9-----------------------------------|
B|-12--12--12-12-12-10-10-10-9---9-777777---6----------------------|
G|----------------------------------------7---10p9-10p9-11---------|
D|-----------------------------------------------------------------|
A|-----------------------------------------------------------------|
E|-----------------------------------------------------------------|


Outro 1x
E|---------------------------------------------------|
B|---------------------------------------------------|
G|---6-8-9-11-9-8-9-8-6--------6-5--------6-5--------|
D|-6--------------------6-66-7-----6-66-7-----6------|
A|---------------------------------------------------|
E|---------------------------------------------------|


E|---------------------------------------------------|
B|---------------------------------------------------|
G|---6-8-9-8-6-5-6-8-6--------6-5--------6-5---6-5---|
D|-6-------------------6-66-7-----6-66-7-----7-----6-|
A|---------------------------------------------------|
E|---------------------------------------------------|

END
Добавлено: 20.06.2012
Другие материалы по этой песне:
  • Аккорды и текст

Страница создана 20.06.2012
http://primanota.ru/cinema-strange/legs-and-tarpaulin-chords.htm
Привет, Гость.
Предлагаем пройти революционный курс по гитаре.
Подарок от PrimaNota.Ru, забирай!