PrimaNota.ru - самый крупный в мире бесплатный архив песенных текстов, аккордов, табулатур и нот


Cinema Strange - Greensward Grey - таба, бас-таба, видео

Регистрация Запомнить меня
Войти через:  Facebook Google Twitter Vk Yandex Mail.ru

Cinema Strange - Greensward Grey - таба, бас-таба, видео

Печатать
Просмотров: 222
~Note: I personally received this tab from Michael Ribiat via Myspace, so who better to 
it to me than the man who wrote it!~

Not: The intro (Prior to Drums) is played in hermonics
E---7-------------------------|
B----7------------------------|
G-----5-5-7-------------------|
D-----------------------------|
A-----------------------------|
E-----------------------------|

~Inrto with Drums~
E---------10-11------------------|
B-8-8-11-8-8-8-8-8-11-8-8-7-10-7-|
G--------------------------------|
D--------------------------------|
A--------------------------------|
E--------------------------------|

~The Verse~
E-----------------------------|
B---------3--4----------------|
G-0-0-0-3-0-0-0-0-0-3-0-0---2-|
D----------------------4--4---|
A-----------------------------|
E-----------------------------|

~A Catchy Little tune from the California-based Cinema Strange off they're 2000 album, 
Strang"
Добавлено: 22.06.2012
Другие материалы по этой песне:

Страница создана 10.05.2012
http://primanota.ru/cinema-strange/greensward-grey-chords.htm
Привет, Гость.
Предлагаем пройти революционный курс по гитаре.
Подарок от PrimaNota.Ru, забирай!