PrimaNota.ru - самый крупный в мире бесплатный архив песенных текстов, аккордов, табулатур и нот


Cinema Strange - En Hiver - бас-таба, видео

Регистрация Запомнить меня
Войти через:  Facebook Google Twitter Vk Yandex Mail.ru

Cinema Strange - En Hiver - бас-таба, видео

Печатать
Просмотров: 229
"En Hiver" by Cinema Strange


~I guess you can play this song on guitar and
Bass~

Intro/Verse 1:
G--------------|
D--------------|   Repeat 4 times
A---3/6--------|
E---------4-3--|

Chorus:
G---------------------------------|
D---------------------------------| Repeat 4 times
A--3-3-3-3-------------------6-5--|
E-----------4-4-4-4-3-3-3-3-------|


Verse 2:
G-------------------------------|
D-------------------------------|  Repeat 8 times
A---3-3-3/6-6-6-----------------|
E-----------------4-4-4-3-3-3---|


Ending:
G-----------|
D-----------|
A---3~------|
E-----------|

~A Strange little winter-oriented song
Beatuiful, but sinister!~
Добавлено: 09.05.2012
Другие материалы по этой песне:
  • Аккорды и текст

Страница создана 09.05.2012
http://primanota.ru/cinema-strange/en-hiver-chords.htm
Привет, Гость.
Предлагаем пройти революционный курс по гитаре.
Подарок от PrimaNota.Ru, забирай!