PrimaNota.ru - самый крупный в мире бесплатный архив песенных текстов, аккордов, табулатур и нот


Cinema Bizarre - Wasted - текст песни, таба, видео

Регистрация Запомнить меня
Войти через:  Facebook Google Twitter Vk Yandex Mail.ru

Cinema Bizarre - Wasted - текст песни, таба, видео

Печатать
Просмотров: 628
-------------------------------------------------------------------------------
                             Wasted - Cinema Bizarre
-------------------------------------------------------------------------------
Tabbed by: mitchell.minami
Email: mitch_macfarlane0519@hotmail.com

Tuning:

Intro

e|-------------------------------|-------------------------------|
B|-------------------------------|-------------------------------|
G|---2-2-2-2-2--1--1-1-1h2-2-2-2-|---2-2-2-2-2--1--1-1-1h2-2-2-2-|
D|-4-4-4-4-4-4--4--4-4-4-4-4-4-4-|-0-0-0-0-0-0--2--2-2-2-2-2-2-2-|
A|-------------------------------|-------------------------------|
D|-------------------------------|-------------------------------|

Verse

e|-------------------------------|-------------------------------|\
B|-------------------------------|-------------------------------| \
G|---2-2-2-2-2--1--1-1-1h2-2-2-2-|---2-2-2-2-2--1--1-1-1h2-2-2-2-|  \
D|-4-4-4-4-4-4--4--4-4-4-4-4-4-4-|-0-0-0-0-0-0--2--2-2-2-2-2-2-2-|   \
A|-------------------------------|-------------------------------|    \
D|-------------------------------|-------------------------------|     \
                                                                        >X2
e|-------------------------------|-------------------------------|     /
B|-------------------------------|-------------------------------|    /
G|---2-2-2-2-2--1--1-1-1h2-2-2-2-|---2-2-2-2-2--1--1-4-4-4-2-2-1-|   /
D|-4-4-4-4-4-4--4--4-4-4-4-4-4-4-|-0-0-0-0-0-0--2--2-2-2-2-2-2-2-|  /
A|-------------------------------|-------------------------------| /
D|-------------------------------|-------------------------------|/

Prechorus

e|---------------------------------------------------|
B|---------------------------------------------------|
G|-1-1-1-2-2-2-1-1-1-1-1-4-4-4-2-1-1-1-1-2-2-2-1-1-1-|
D|-0-0-0-0-0-0-0-0-2-2-2-2-2-2-2-2-0-0-0-0-0-0-0-0-2-|<-This last note just stops. Then theres a
A|---------------------------------------------------|  rest before the chorus.
D|---------------------------------------------------|

Chorus

e|-----------------------------------------------------------------|
B|-----------------------------------------------------------------|
G|-----------------------------------------------------------------|
D|-4-4-4-4-4-4-4-4-4-4-4-4-6-6-6-6-2-2-2-2-2-2-2-2-2-2-2-2-2-2-2-2-|
A|-4-4-4-4-4-4-4-4-4-4-4-4-4-4-4-4-2-2-2-2-2-2-2-2-2-2-2-2-0-0-0-0-|
D|-4-4-4-4-4-4-4-4-4-4-4-4-4-4-4-4-2-2-2-2-2-2-2-2-2-2-2-2-0-0-0-0-|

e|-----------------------------------------------------------------|
B|-----------------------------------------------------------------|
G|-----------------------------------------------------------------|
D|-0-0-0-0-0-0-0-0-0-0-0-0-0-0-0-0-2-2-2-2-2-2-2-2-2-2-2-2-2-2-2-2-|
A|-0-0-0-0-0-0-0-0-0-0-0-0-0-0-0-0-2-2-2-2-2-2-2-2-2-2-2-2-0-0-0-0-|
D|-0-0-0-0-0-0-0-0-0-0-0-0-0-0-0-0-2-2-2-2-2-2-2-2-2-2-2-2-0-0-0-0-|

e|-----------------------------------------------------------------|
B|-----------------------------------------------------------------|
G|-----------------------------------------------------------------|
D|-4-4-4-4-4-4-4-4-4-4-4-4-6-6-6-6-2-2-2-2-2-2-2-2-2-2-2-2-2-2-2-2-|
A|-4-4-4-4-4-4-4-4-4-4-4-4-4-4-4-4-2-2-2-2-2-2-2-2-2-2-2-2-0-0-0-0-|
D|-4-4-4-4-4-4-4-4-4-4-4-4-4-4-4-4-2-2-2-2-2-2-2-2-2-2-2-2-0-0-0-0-|

e|-----------------------------------------------------------------|
B|-----------------------------------------------------------------|
G|---------------------------------4-4-4-4-4-4-4-4-4-4-4-4-2-2-2-1-|
D|-0-0-0-0-0-0-0-0-0-0-0-0-0-0-0-0-2-2-2-2-2-2-2-2-2-2-2-2-2-2-2-2-|
A|-0-0-0-0-0-0-0-0-0-0-0-0-0-0-0-0-2-2-2-2-2-2-2-2-2-2-2-2-2-2-2-2-|
D|-0-0-0-0-0-0-0-0-0-0-0-0-0-0-0-0-2-2-2-2-2-2-2-2-2-2-2-2-2-2-2-2-|

Pre Verse

e|------------------------------|
B|------------------------------|
G|--2-2-2-2-2--1--1-1-1h2-2-2-2-|
D|4-4-4-4-4-4--2--2-2-2-2-2-2-2-|
A|------------------------------|
D|------------------------------|

Repeat Verse

Repeat Pre Chorus

Repeat Chorus

Repeat Pre Verse

Bridge

e|-----------------------------------------------------------------|
B|-----------------------------------------------------------------|
G|-----------------------------------------------------------------|
D|-4-4-4-4-4-4-4-4-4-4-4-4-4-4-4-4-2-2-2-2-2-2-2-2-2-2-2-2-2-2-2-2-|
A|-4-4-4-4-4-4-4-4-4-4-4-4-4-4-4-4-2-2-2-2-2-2-2-2-2-2-2-2-2-2-2-2-|
D|-4-4-4-4-4-4-4-4-4-4-4-4-4-4-4-4-2-2-2-2-2-2-2-2-2-2-2-2-2-2-2-2-|

e|------------------------------------------------------------|
B|------------------------------------------------------------|
G|-4-4-4-4-4-4-4-4-4-4-4-4-4-4-4-4-7-7-7-7-7-7-7-7-7-7-7-7-7~-|
D|-4-4-4-4-4-4-4-4-4-4-4-4-4-4-4-4-7-7-7-7-7-7-7-7-7-7-7-7-7~-|
A|-2-2-2-2-2-2-2-2-2-2-2-2-2-2-2-2-5-5-5-5-5-5-5-5-5-5-5-5-5~-|
D|------------------------------------------------------------|

(Synth Thing)
e|----------------------|
B|----------------------|
G|---1-2-1-------1-2-4~-|
D|-4-------4-2-4--------|
A|----------------------|
D|----------------------|

Repeat Chorus

Repeat Pre Verse

End of song. if you find mistakes, notify is you want.

| /  slide up
| \  slide down
| h  hammer-on
| p  pull-off
| ~  vibrato
| +  harmonic
| x  Mute note
===============================================================================


Добавлено: 13.07.2012
Другие материалы по этой песне:
  • Аккорды и текст

Страница создана 13.07.2012
http://primanota.ru/cinema-bizarre/wasted-chords.htm
Привет, Гость.
Предлагаем пройти революционный курс по гитаре.
Подарок от PrimaNota.Ru, забирай!