PrimaNota.ru - самый крупный в мире бесплатный архив песенных текстов, аккордов, табулатур и нот


Cinderella - Hot & Bothered - текст песни, таба, видео

Регистрация Запомнить меня
Войти через:  Facebook Google Twitter Vk Yandex Mail.ru

Cinderella - Hot & Bothered - текст песни, таба, видео

Печатать
Просмотров: 315
Уроки эстрадного вокала в Санкт-Петербурге
-------------------------------------------------------------------------------
                                     HOT AND BOTHERED - Cinderella
-------------------------------------------------------------------------------
Tabbed by: William Clark (CinderellaFan14)

Album: Still Climbing (1994)

Tuning: Standard


Intro
e|--------------------------------------------------------------------------|
B|--------------------------------------------------------------------------|
G|--7--7-----------------------------5---2----------------------------------|
D|--7--7----------------4------5-----5---2----------------------------------|
A|--5--5-------------4-------5-------3---0------------------------3---------|
E|-----------------2-------3----------------------0--3--0--5--0-----5-------|
    
                             1st Verse
e|----------------------------------||--------------------------------------|
B|----------------------------------||--------------------------------------|
G|--7--7--------------------------5-||--2----2----5---2--2------5----2------|
D|--7--7-------------4-------5----5-||--2----2----5---2--2------5----2------|
A|--5--5----------4--------5------3-||--0----0----3---0--0------3----0------|
E|--------------2--------3----------||--------------------------------------|
                 
      x6 1st time, x4 second time     First Time
e|-------------------------------||-----------------------------------------|
B|-------------------------------||-----------------------------------------|
G|-2----5---2---7----5---2-------||---7-7--7---7-7--7--7-7--7--7-7--7-------|
D|-2----5---2---7----5---2-------||---7-7--7---7-7--7--7-7--7--7-7--7-------|
A|-0----3---0---5----3---0-------||---5-5--5---5-5--5--5-5--5--5-5--5-------|
E|-------------------------------||-----------------------------------------|
               
                              Return to verse intro              Second Time 
e|-----------------------------------------------------------||-------------|
B|-----------------------------------------------------------||-------------|
G|--------------------------------------7--5-----------------||---7-7--7---7|
D|-2--2-2-2-2-2-2-2-2-2-2-2-2-2--5---2--7--5-----------------||---7-7--7---7|
A|-2--2-2-2-2-2-2-2-2-2-2-2-2-2--5---2--5--3-----------------||---5-5--5---5|
E|-0--0-0-0-0-0-0-0-0-0-0-0-0-0--3---0-----------------------||-------------|
       
                                                      Chorus             x3
e|--------------------------------------------------||---------------------||
B|--------------------------------------------------||---------------------||
G|-7--7--7-7--7--7-7--5-----------------------7-7---||2-2---------7-7--5-4-||
D|-7--7--7-7--7--7-7--5---2---2-2-2-2-2-2-2---7-7---||2-2--5-4----7-7--5-4-||
A|-5--5--5-5--5--5-5--3---2---2-2-2-2-2-2-2---5-5---||0-0--5-4----5-5--3-2-||
E|------------------------0---0-0-0-0-0-0-0---------||-----3-2-------------||
              
                                               Second Verse 
e|------------------------------------------||------------------------------|
B|------------------------------------------||------------------------------|
G|-7--7-7-7-7-7-7-7-7-7-7-7-7-7-7-7---5---5-||-2--2--5--2-2--5--2--2--5--2--|
D|-7--7-7-7-7-7-7-7-7-7-7-7-7-7-7-7---5---5-||-2--2--5--2-2--5--2--2--5--2--|
A|-5--5-5-5-5-5-5-5-5-5-5-5-5-5-5-5---3---3-||-0--0--3--0-0--3--0--0--3--0--|
E|------------------------------------------||------------------------------|
       
       x4                            Repeat Chorus   Rhythm Guitar (Solo) 
e|-------||---------------------------------------|-------------------------|
B|-------||---------------------------------------|-------------------------|
G|-7--5--||--7-7--7---7--7--7-7-7-7-7-7-7---5--5--|-------------------------|
D|-7--5--||--7-7--7---7--7--7-7-7-7-7-7-7---5--5--|-2----2-2---2---2-2------|
A|-5--3--||--5-5--5---5--5--5-5-5-5-5-5-5---3--3--|-2----2-2---2---2-2------|
E|-------||---------------------------------------|-0----0-0---0---0-0------|


e|--------------------------------------------------------------------------|
B|--------------------------------------------------------------------------|
G|-9-7-6-4-5-6-7--7-7-7-7-7-7-7-7-7-7-7-5-5-4-4-2--2-2-2-2-2-2-2-2-2-2-2----|
D|-9-7-6-4-5-6-7--7-7-7-7-7-7-7-7-7-7-7-5-5-4-4-2--2-2-2-2-2-2-2-2-2-2-2----|
A|-7-5-4-2-3-4-5--5-5-5-5-5-5-5-5-5-5-5-3-3-2-2-0--0-0-0-0-0-0-0-0-0-0-0----|
E|--------------------------------------------------------------------------|


e|--------------------------------------------------------------------------|
B|--------------------------------------------------------------------------|
G|-5-2-5-2-5------7-7-7-7-7-7-7-7-7-7-7-5-5-4-4-2--2-2-2-2-2-2-2-2-2-2-2----|
D|-5-2-5-2-5------7-7-7-7-7-7-7-7-7-7-7-5-5-4-4-2--2-2-2-2-2-2-2-2-2-2-2----|
A|-3-0-3-0-3------5-5-5-5-5-5-5-5-5-5-5-3-3-2-2-0--0-0-0-0-0-0-0-0-0-0-0----|
E|--------------------------------------------------------------------------|


e|--------------------------------------------------------------------------|
B|--------------------------------------------------------------------------|
G|-5-2-5-2-5------7-7-7-7-7-7-7-7-7-7-7-5-5-4-4-2--2-2-2-2-2-2-2-2-2-2-2----|
D|-5-2-5-2-5------7-7-7-7-7-7-7-7-7-7-7-5-5-4-4-2--2-2-2-2-2-2-2-2-2-2-2----|
A|-3-0-3-0-3------5-5-5-5-5-5-5-5-5-5-5-3-3-2-2-0--0-0-0-0-0-0-0-0-0-0-0----|
E|--------------------------------------------------------------------------|


e|--------------------------------------------------------------------------|
B|--------------------------------------------------------------------------|
G|-5-2-5-2-5------7-7-7-7-7-7-7-7-7-7-7-5-5-4-4-9--9-9-9-9-9-9-9-9-9-9-9----|
D|-5-2-5-2-5------7-7-7-7-7-7-7-7-7-7-7-5-5-4-4-9--9-9-9-9-9-9-9-9-9-9-9----|
A|-3-0-3-0-3------5-5-5-5-5-5-5-5-5-5-5-3-3-2-2-7--7-7-7-7-7-7-7-7-7-7-7----|
E|--------------------------------------------------------------------------|
                     
                   Play Intro x3, then play this:
                      x16    x12                 end by repeating chorus
e|-----------------||-----||----||------------------------------------------|
B|-----------------||-----||----||------------------------------------------|
G|-7-7--5-5--4--2--||--7--||-9--||------------------------------------------|
D|-7-7--5-5--4--2--||--7--||-9--||------------------------------------------|
A|-5-5--3-3--2--0--||--5--||-7--||------------------------------------------|
E|-----------------||-----||----||------------------------------------------|


************************************

| /   slide up
| \   slide down
| h   hammer-on
| p   pull-off
| ~   vibrato
| +   harmonic
| x   Mute note
| b   Bend
| pb  Pre-bend
| br  Bend release
| pbr Pre-bend release
| brb Bend release bend

************************************

Check out my other tabs and reviews at 
http://profile.ultimate-guitar.com/CinderellaFan14/contributions/reviews/
Добавлено: 03.07.2012
Другие материалы по этой песне:

Страница создана 26.03.2012
http://primanota.ru/cinderella/hot-and-bothered-chords.htm
Привет, Гость.
Предлагаем пройти революционный курс по гитаре.
Подарок от PrimaNota.Ru, забирай!