PrimaNota.ru - самый крупный в мире бесплатный архив песенных текстов, аккордов, табулатур и нот


Cinder - Ride - таба, видео

Регистрация Запомнить меня
Войти через:  Facebook Google Twitter Vk Yandex Mail.ru

Cinder - Ride - таба, видео

Печатать
Просмотров: 109
verse
e(--------------------------------------------------)
b(--------------------------------------------------)
g(--33-33-33-33----------33-33-33-33-------6666/888-)
d(--33-33-33-33-11111111-33-33-33-33-11-1116666/888-)
a(--11-11-11-11-11111111-11-11-11-11-11-1114444/666-)
D(--------------11111111-------------11-111---------)

verse continued
e(----------------------------------------------------)
b(----------------------------------------------------)
g(--33-33-33-33----------33-33-33-33------------------)
d(--33-33-33-33-11111111-33-33-33-33-6666666666666666-)
a(--11-11-11-11-11111111-11-11-11-11-6666666666666666-)
D(--------------11111111-------------6666666666666666-)

chorus x4
e(-------------------)
b(-------------------)
g(--11-33-44~-3-3-4~-)
d(--11-33-44~-3-3-4~-)
a(--11-33-44~-1-1-2~-)
D(--11-33-44---------)

post-chorus
e(------------------------)
b(------------------------)
g(--8-6-4-3/4-8-6-4-3/4/6-)
d(--8-6-4-3/4-8-6-4-3/4/3-)
a(--6-4-2-1/2-6-4-2-1/2/4-)
D(------------------------)

bridge
e(------------------------------------------)
b(------------------------------------------)
g(--6/8-6-6-2-6/8-6-6-4-6/8-6-6-3-6/8-3-3-6-)
d(--6/8-6-6-2-6/8-6-6-4-6/8-6-6-3-6/8-3-3-6-)
a(--4/6-4-4-2-4/6-4-4-2-4/6-4-4-1-4/6-1-1-4-)
D(------------------------------------------)

bridge continued
e(------------------------------------------)
b(------------------------------------------)
g(--6/8-6-6-2-6/8-6-6-4-6/8-6-6-3-6/8-3-3-6-)
d(--6/8-6-6-2-6/8-6-6-4-6/8-6-6-3-6/8-3-3-6-)
a(--4/6-4-4-2-4/6-4-4-2-4/6-4-4-1-4/6-1-1-4-)
D(------------------------------------------)

bridge
e(----------------------------------)
b(----------------------------------)
g(--6/8-6-4-6/8-6-4-6/8-6-4-6/8-6-4-)
d(--6/8-6-4-6/8-6-4-6/8-6-4-6/8-6-4-)
a(--4/6-4-2-4/6-4-2-4/6-4-2-4/6-4-2-)
D(----------------------------------)

bridge(lead) x12
e(--------)
b(--7/4-4-)
g(--------)
d(--------)
a(--------)
D(--------)

lead for the last chorus
e(--11-9-------9-11/14-)
b(-------11-11---------)
g(---------------------)
d(---------------------)
a(---------------------)
D(---------------------)

outro
e(----------------------------------)
b(----------------------------------)
g(--6/8-6-4-6/8-6-4-6/8-6-4-6/8-6-4-)
d(--6/8-6-4-6/8-6-4-6/8-6-4-6/8-6-4-)
a(--4/6-4-2-4/6-4-2-4/6-4-2-4/6-4-2-)
D(----------------------------------)

outro(lead)
e(--11-11---11-11-11h12b-p11-11-11---11-11--99-11--11--11--11-)
b(------------------------------------------------------------)
g(------------------------------------------------------------)
d(------------------------------------------------------------)
a(------------------------------------------------------------)
D(------------------------------------------------------------)
Добавлено: 13.06.2012
Другие материалы по этой песне:
  • Аккорды и текст

Страница создана 13.06.2012
http://primanota.ru/cinder/ride-chords.htm
Привет, Гость.
Предлагаем пройти революционный курс по гитаре.
Подарок от PrimaNota.Ru, забирай!