PrimaNota.ru - самый крупный в мире бесплатный архив песенных текстов, аккордов, табулатур и нот


Cinder - Mirror - таба, видео

Регистрация Запомнить меня
Войти через:  Facebook Google Twitter Vk Yandex Mail.ru

Cinder - Mirror - таба, видео

Печатать
Просмотров: 118
intro/chorus x4
e(-----------------)
b(-----------------)
g(--------44444444-)
d(--55555444444444-)
a(--55555422222222-)
D(--555554---------)

intro(lead) 
e(-------------10------------------)
b(---------------------------------)
g(--9h10-9-7--------9-7-----7-7/11-)
d(-----------9----9-----7h9--------)
a(---------------------------------)
D(---------------------------------)

intro(lead) continued
e(-------------------------------)
b(-------------------7-----------)
g(--9h10-9-7---7-9-7---9-7---7---)
d(-----------9-------------9---5-)
a(-------------------------------)
D(-------------------------------)

intro(lead) continued
e(-------------------------------)
b(-------------------------------)
g(--9h10-9-7------9-7-----7-7/11-)
d(-----------9--9-----7h9--------)
a(-------------------------------)
D(-------------------------------)

intro(lead) continued
e(----------------------)
b(----------------------)
g(--9h10-9-7---7/11-----)
d(-----------9------9/5-)
a(----------------------)
D(----------------------)

verse x5
e(----------------)
b(----------------)
g(---------4-4----)
d(--5-5-54-4-44h5-)
a(--5-5-54-2-24h5-)
D(--5-5-54----4h5-)

verse(lead) x2
e(--222222-)
b(--333333-)
g(---------)
d(---------)
a(---------)
D(---------)

pre-chorus
e(-----------------------------------)
b(-----------------------------------)
g(-----------------------------------)
d(--5-5-5-5-4-4-4-4-2-2-2-2-22222222-)
a(--5-5-5-5-4-4-4-4-2-2-2-2-22222222-)
D(--5-5-5-5-4-4-4-4-2-2-2-2-22222222-)

chorus(lead) 
e(--------------------------------------------)
b(--------------------------------------------)
g(--7-7-76-7----------7-7-7/9-9-9/11----------)
d(-----------9999-999----------------9999-999-)
a(--------------------------------------------)
D(--------------------------------------------)

chorus(lead)continued
e(-------------------------------------)
b(-------------------------------------)
g(--7-7-76-7----------7-7-7/9-9-9/11~~-)
d(-----------9999-999------------------)
a(-------------------------------------)
D(-------------------------------------)

bridge
e(----------------------------------------------------------------)
b(---------12~~12-12-12-12-12-9~~7~~---9h11-9-9h11-9-9h11-9-11b~~-)
g(--9~~11~~-------------------------9~~---------------------------)
d(----------------------------------------------------------------)
a(----------------------------------------------------------------)
D(----------------------------------------------------------------)

last chorus(lead)
e(---------------------------------------------------------------)
b(--12-12-12-9-12------------------------------------------------)
g(----------------11-11-11-11-7-7-76-7------9h11-9-9h11-9-9h11-9-)
d(-------------------------------------9999----------------------)
a(---------------------------------------------------------------)
D(---------------------------------------------------------------)

last chorus(lead)continued
e(-----------------------------------)
b(--12h15-12-12-12-12----------------)
g(--------------------7-7-7/9-9-9/11-)
d(-----------------------------------)
a(-----------------------------------)
D(-----------------------------------)
Добавлено: 26.04.2012
Другие материалы по этой песне:
  • Аккорды и текст

Страница создана 26.04.2012
http://primanota.ru/cinder/mirror-chords.htm
Привет, Гость.
Предлагаем пройти революционный курс по гитаре.
Подарок от PrimaNota.Ru, забирай!