PrimaNota.ru - самый крупный в мире бесплатный архив песенных текстов, аккордов, табулатур и нот


Cinder - Break Your Silence - таба, видео

Регистрация Запомнить меня
Войти через:  Facebook Google Twitter Vk Yandex Mail.ru

Cinder - Break Your Silence - таба, видео

Печатать
Просмотров: 126
chorus
e(----------------------)
b(----------------------)
g(--7777-5-5-7777-5-7-5-)
d(--5555-3-3-5555-3-5-3-)
a(----------------------)
D(----------------------)

chorus(lead)
e(----------------------)
b(--7/8-7/8-11/10b------)
g(-----------------11/7-)
d(----------------------)
a(----------------------)
D(----------------------)

verse
e(-----12-13-12----------8-----------------)
b(--------------11----11-------------------)
g(---------------------------5-7-5-7-5-7-5-)
d(--10-------------10------7---------------)
a(-----------------------------------------)
D(-----------------------------------------)

pre-chorus
e(------------------)
b(------------------)
g(--5-5-7-8-7-7-7-5-)
d(--5-5-7-8-7-7-7-5-)
a(--3-3-5-6-5-5-5-3-)
D(------------------)

pre-chorus(lead)
e(-------------------------------)
b(-------------------------------)
g(--5-5-7-8-7-7-7-5-77-9-77-77-9-)
d(--5-5-7-8-7-7-7-5--------------)
a(--3-3-5-6-5-5-5-3--------------)
D(-------------------------------)

post-chorus
e(----------------------------------------------)
b(----------------------------------------------)
g(----------5-7-5-7-5-7-5-7---------5-----------)
d(--7-7-7-7-----------------7-7-7-7---5-555-555-)
a(----------------------------------------------)
D(----------------------------------------------)

bridge
e(--------------------------)
b(--------------------------)
g(------8-----5-----8-----5-)
d(--1-1-8-3-3-5-1-1-8-0-0-5-)
a(--1-1-6-3-3-3-1-1-6-0-0-3-)
D(--1-1---3-3---1-1---0-0---)
Добавлено: 02.05.2012
Другие материалы по этой песне:
  • Аккорды и текст

Страница создана 02.05.2012
http://primanota.ru/cinder/break-your-silence-chords.htm
Привет, Гость.
Предлагаем пройти революционный курс по гитаре.
Подарок от PrimaNota.Ru, забирай!