PrimaNota.ru - самый крупный в мире бесплатный архив песенных текстов, аккордов, табулатур и нот


Cinder Road - The Devil Made Me Do It - таба, видео

Регистрация Запомнить меня
Войти через:  Facebook Google Twitter Vk Yandex Mail.ru

Cinder Road - The Devil Made Me Do It - таба, видео

Печатать
Просмотров: 97
Cinder Road - The Devil Made Me Do It

I thought that Cinder Road dropped some tune refer to their live performanced I've 
ever seen in YouTube.

So I created this tab based on the standard tune.

Intro:
e |------------------------------------------------------------------|
B |------------------------------------------------------------------|
G |------------------------------------------------------------------|
D |------------------------------------------------------------------| 2x
A |--5-------4-------3---------------5--------4-------3--------------|
E |---0--0--0-0--0--0-0--0--0-3-0-3-5--0--0--0-0--0--0-0-3-0-3-5-6---|
        PM      PM      PM               PM      PM

First Verse:
e |------------------------------------------------------------------|
B |------------------------------------------------------------------|
G |------------------------------------------------------------------|
D |------------------------------------------------------------------| 2x
A |--5-------4-------3---------------5--------4-------3--------------|
E |---0--0--0-0--0--0-0--0--0-3-0-3-5--0--0--0-0--0--0-0-0-0-3-0-3-5-|
        PM      PM      PM               PM      PM     PM

Second Verse:
e |------------------------------------------------------------------|
B |------------------------------------------------------------------|
G |------------------------------------------------------------------|
D |------------------------------------------------------------------| 2x
A |------------------5-------4-------3-----5-3-----------------------|
E |-------------------0--0--0-0--0--0-0-3-5---6-5--------------------|
                        PM      PM

Before Chorus:
e |------------------------------------------------------------------|
B |------------------------------------------------------------------|
G |------------------------------------------------------------------|
D |-----------77777777--55------------55555555--77-x-----------------| 
A |-----------77777777--55----5-3-----55555555--77-x-----------------|
E |-----------55555555--33-0-3---6-5--33333333--55-x-----------------|

Chorus:
e |------------------------------------------------------------------|
B |------------------------------------------------------------------|
G |----------------------------5-555555------------------------------|
D |-7777-2-222222---5-555555---5-555555---7-777777-------------------|
A |-7777-2-222222---5-555555---3-333333---7-777777---2---------------|
E |-5555------------3-333333--------------5-555555----5-3------------|

e |------------------------------------------------------------------|
B |------------------------------------------------------------------|
G |------------------------5-555555---4-444444---3-3333333-----------|
D |--2-222222---5-555555---5-555555---4-444444---3-3333333-----------|
A |--2-222222---5-555555---3-333333---2-222222---1-1111111-----------|
E |-------------3-333333---------------------------------------------|

After Chorus:
e |------------------------------------------------------------------|
B |------------------------------------------------------------------|
G |------------------------------------------------------------------|
D |------------------------------------------------------------------|
A |------------------5--------4------3-------------------------------|
E |-------------------0--0--0-0--0--0-0-3-0-3-5-6--------------------|
                        PM      PM

Third Verse:
e |------------------------------------------------------------------|
B |------------------------------------------------------------------|
G |------------------------------------------------------------------|
D |------------------------------------------------------------------| 2x
A |--5-------4-------3---------------5--------4-------3--------------|
E |---0--0--0-0--0--0-0--0--0-3-0-3-5--0--0--0-0--0--0-0-0-0-3-0-3-5-|
        PM      PM      PM               PM      PM     PM

Fourth Verse:
e |------------------------------------------------------------------|
B |------------------------------------------------------------------|
G |------------------------------------------------------------------|
D |------------------------------------------------------------------| 2x
A |------------------5-------4-------3-----5-3-----------------------|
E |-------------------0--0--0-0--0--0-0-3-5---6-5--------------------|
                        PM      PM

Before Chorus:
e |------------------------------------------------------------------|
B |------------------------------------------------------------------|
G |------------------------------------------------------------------|
D |-----------77777777--55------------55555555--77-x-----------------|
A |-----------77777777--55----5-3-----55555555--77-x-----------------|
E |-----------55555555--33-0-3---6-5--33333333--55-x-----------------|

Chorus:
e |------------------------------------------------------------------|
B |------------------------------------------------------------------|
G |----------------------------5-555555------------------------------|
D |-7777-2-222222---5-555555---5-555555---7-777777-------------------|
A |-7777-2-222222---5-555555---3-333333---7-777777---2---------------|
E |-5555------------3-333333--------------5-555555----5-3------------|


e |------------------------------------------------------------------|
B |------------------------------------------------------------------|
G |------------------------5-555555---4-444444---3-3333333-----------|
D |--2-222222---5-555555---5-555555---4-444444---3-3333333-----------|
A |--2-222222---5-555555---3-333333---2-222222---1-1111111-----------|
E |-------------3-333333---------------------------------------------|

Bridge:
e |------------------------------------------------------------------|
B |------------------------------------------------------------------|
G |-------------------------------------------5----------------------|
D |--------------2-0-5-0-7------------2-0-5-0-5----------------------| 2x
A |--------------2-0-5-0-7------------2-0-5-0-3----------------------|
E |------------------3-0-5----------------3-0------------------------|

Solo:
e |------------------------------------------------------------------|
B |-----------------9-11-12--11-12--11-12-11-12----------------------| 
G |------------------------11-----11-----9---------------------------| 3x
D |------------------------------------------------------------------|
A |------------------------------------------------------------------|
E |------------------------------------------------------------------|

e |-----------------------------------------------------0x-----------|
B |-----------------9-11-12--11-12--12-11---------------0x-----------| 
G |------------------------11-----9---------------------0x-----------| 
D |----------------------------------------22222222222--0x-----------|
A |----------------------------------------22222222222--0x-----------|
E |-----------------------------------------------------0x-----------|

Chorus:
e |------------------------------------------------------------------|
B |------------------------------------------------------------------|
G |----------------------------5-555555------------------------------|
D |------2-222222---5-555555---5-555555---7-777777-------------------|
A |-2----2-222222---5-555555---3-333333---7-777777---2---------------|
E |--5-3------------3-333333--------------5-555555----5-3------------|

e |------------------------------------------------------------------|
B |------------------------------------------------------------------|
G |----------------------------5-555555--------------555-------------|
D |------2-222222---5-555555---5-555555---7-777777---555-------------|
A |------2-222222---5-555555---3-333333---7-777777---333-------------|
E |-----------------3-333333--------------5-555555-------------------|

e |------------------------------------------------------------------|
B |------------------------------------------------------------------|
G |----------------------------5-555555------------------------------|
D |------2-222222---5-555555---5-555555---7-777777-------------------|
A |------2-222222---5-555555---3-333333---7-777777---2---------------|
E |-----------------3-333333--------------5-555555----5-3------------|

e |------------------------------------------------------------------|
B |------------------------------------------------------------------|
G |------------------------5-555555---4-444444---3-3333333-----------|
D |--2-222222---5-555555---5-555555---4-444444---3-3333333-----------|
A |--2-222222---5-555555---3-333333---2-222222---1-1111111-----------|
E |-------------3-333333---------------------------------------------|

Outro:
e |------------------------------------------------------------------|
B |------------------------------------------------------------------|
G |------------------------------------------------------------------|
D |------------------------------------------------------------------|
A |------------------5-------4-------3-------------------------------|
E |-------------------0--0--0-0--0--0-0-3-0-3-0-3-5------------------|
                        PM      PM

e |------------------------------------------------------------------|
B |------------------------------------------------------------------|
G |------------------------------------------------------------------|
D |------------------------------------------------------------------|
A |------------------5-------4-------3-------------------------------|
E |-------------------0--0--0-0--0--0-0-0-3-3-3----------------------|
                        PM      PM   PM

e |------------------------------------------------------------------|
B |------------------------------------------------------------------|
G |------------------------------------------------------------------|
D |------------------------------------------------------------------|
A |------------------5-------4-------3-------------------------------|
E |-------------------0--0--0-0--0--0-0-3-0-3-0-3-5------------------|
                        PM      PM

e |------------------------------------------------------------------|
B |------------------------------------------------------------------|
G |------------------------------------------------------------------|
D |------------------------------------------------------------------|
A |------------------5-------4-------3-------------5-----------------|
E |-------------------0--0--0-0--0--0-0-0-0-3-0-3-5-0-0--------------|
                        PM      PM     PM            PM
Добавлено: 14.07.2013
Другие материалы по этой песне:
  • Аккорды и текст

Страница создана 14.07.2013
http://primanota.ru/cinder-road/the-devil-made-me-do-it-chords.htm
Привет, Гость.
Предлагаем пройти революционный курс по гитаре.
Подарок от PrimaNota.Ru, забирай!