PrimaNota.ru - самый крупный в мире бесплатный архив песенных текстов, аккордов, табулатур и нот


Cinder Road - Get In Get Out - таба, видео

Регистрация Запомнить меня
Войти через:  Facebook Google Twitter Vk Yandex Mail.ru

Cinder Road - Get In Get Out - таба, видео

Печатать
Просмотров: 103
Авторы: Mike Ruocco, Marti Frederiksen

Intro:
e|----------------------------|--------------|----------------|
B|----------------------------|--------------|----------------|
G|----------------------------|--------------| ---------------| 
D|----------------------------|-Play-3-Times-|----------------|
A|-4--4--4-2---------------2--|--------------|-4--4--4-2------|
E|-----------4-0--0--0-0h2----|--------------|-----------4-0--|

Repeat intro 8 times with palm muting and then:

e|-------------------------------------------------------|
B|-------------------------------------------------------|
G|-----------------------------4-4--4-4-4--4-6-6-6-6-6-6-|
D|-7-7--7-7-7--7-6-6--6-6-6-6--4-4--4-4-4--4-6-6-6-6-6-6-|
A|-7-7--7-7-7--7-6-6--6-6-6-6--2-2--2-2-2--2-4-4-4-4-4-4-|
E|-5-5--5-5-5--5-4-4--4-4-4-4----------------------------|

e|-------------------------------------------------------|
B|-------------------------------------------------------|
G|-------------------------------------------------------|
D|-7-7--7-7-7--7-6-6--6-6-6-6--4-4--4-4-4--4--4-4-2--2-4-|
A|-7-7--7-7-7--7-6-6--6-6-6-6--4-4--4-4-4--4--4-4-2--2-4-|
E|-5-5--5-5-5--5-4-4--4-4-4-4--2-2--2-2-2--2--2-2-0--0-2-|

e|--------------------------|------------------------------|
B|--------------------------|------------------------------|
G|-6-6---2-2---4-4--2--2--2-|-6-6---2-2---4--4--4--2-2-2-4-|
D|-6-6---2-2---4-4--2--2--2-|-6-6---2-2---4--4--4--2-2-2-4-|
A|-4-4---0-0---2-2--0--0--0-|-4-4---0-0---2--2--2--0-0-0-2-|
E|--------------------------|------------------------------|

e|--------------------------|------------------------------------|
B|--------------------------|------------------------------------|
G|-6-6---2-2---4-4--2--2--2-|----------------------------2--4--6-|
D|-6-6---2-2---4-4--2--2--2-|-2-4-2-4-2-4-2-4--x-x-x--4--2--4--6-|
A|-4-4---0-0---2-2--0--0--0-|-2-4-2-4-2-4-2-4--x-x-x--4--0--2--4-|
E|--------------------------|-0-2-0-2-0-2-0-2--x-x-x--2----------|


Solo:
e|----------------|-------------------------------------------------------|
B|----------------|-----9h12p9-----9h12p9-----9h12p9-----9h12p9----9h12p9-|
G|-4h6p4----------|-11^--------11^--------11^--------11^--------11^-------|
D|-------6--------|-------------------------------------------------------|
A|-trem.----x////-|-------------------------------------------------------|
E|----------x////-|-------------------------------------------------------|

e|--------------------------|--------------------------------------|
B|-12^-12^-9-12^-12v-9-12^--|-9----9----9----9---------------------|
G|--------------------------|-9----9----9----9--11^-9------------9-|
D|--------------------------|---11---11---11----------9-11-11-11---|
A|--------------------------|--------------------------------------|
E|--------------------------|--------------------------------------|

e|--------------|--------------------------------------------------------|
B|--------------|-16^-14-------------------------------------------------|
G|------------9-|--------15^-13-------------------------11^11^11^-9-11-9-|
D|-9-11-11-11---|---------------16^-14-13^-11------9h11------------------|
A|--------------|-----------------------------9h11-----------------------|
E|--------------|--------------------------------------------------------|

e|-------------------------------------------------------------------|
B|--------------------------------------9----9-13-9-13-12-9-12-13^---|
G|-----------------------9----9-11-9-11---11-------------------------|
D|--------9----9-11-9-11---11----------------------------------------|
A|-7-9-11---11-------------------------------------------------------|
E|-------------------------------------------------------------------|


Outro:
e|-------------------------------------------------------------------------|
B|--12^------12^-------12^-------12^-9----9-12-9--12^-------12^-------12^--|
G|-------------------------------------11----------------------------------|
D|-------------------------------------------------------------------------|
A|-------------------------------------------------------------------------|
E|-------------------------------------------------------------------------|

e|------------|--14^------14^-------14^-----12-14-12----|
B|-9-----9----|--------------------------------------14-|
G|-9-----9----|-----------------------------------------|
D|---11----11-|-----------------------------------------|
A|------------|-----------------------------------------|
E|------------|-----------------------------------------|

e|------------------------------------------------|
B|---------------------9---------9----------------|
G|---------------------9---------9----11^--11---9-|
D|-9h11--9h11--9h11-11---9h11-11---11-------------|
A|------------------------------------------------|
E|------------------------------------------------|

Repeat Intro



www.cinderroadmusic.com





Добавлено: 25.02.2012
Другие материалы по этой песне:
  • Аккорды и текст

Страница создана 25.02.2012
http://primanota.ru/cinder-road/get-in-get-out-chords.htm
Привет, Гость.
Предлагаем пройти революционный курс по гитаре.
Подарок от PrimaNota.Ru, забирай!