PrimaNota.ru - самый крупный в мире бесплатный архив песенных текстов, аккордов, табулатур и нот


Cigarettes After Sex - Nothings Gonna Hurt You Baby - таба, видео

Регистрация Запомнить меня
Войти через:  Facebook Google Twitter Vk Yandex Mail.ru

Cigarettes After Sex - Nothings Gonna Hurt You Baby - таба, видео

Печатать
Просмотров: 161
-------------------------------------------------------------------------------
            Nothing's Gonna Hurt You Baby - Cigarettes After Sex
-------------------------------------------------------------------------------
Tabbed by: NoNazis
No capo, standard tuning.
This is a great, and very underrated song. It's really simple. The words don't really go with the music, 
which can be hard to figure out, but a couple playthroughs should do it.

Intro (Played on bass, but works on guitar):
e|---------------------------------------------------------------------------|
B|---------------------------------------------------------------------------|
G|---------------------------------------------------------------------------|
D|---------------------------------------------------------------------------|
A|------------2--2-2--2-2-------------0--0-0--0-0----------------------------|
E|0--0-0--0-0-------------2--2-2--2-2----------------------------------------|

Verse 1:

E B F#m A

Whispered something in your ear
It was a perverted thing to say
But I said it anyway
Made you smile & look away

Chorus:

Riff repeats throughout chorus.
e|--------------------------|
B|--------------------------|
G|---4-----4------2-----2---|
D|-2-----1------------------|
A|--------------4-----4-----|
E|--------------------------|

Nothing's gonna hurt you baby
As long as you're with me you'll be just fine
Nothing's gonna hurt you baby
Nothing's gonna take you from my side

Verse 3:

E B F#m A

When we dance in my living room
To that silly 90's R&B
When we have a drink or three
Always ends in a hazy shower scene

Chorus:

Riff repeats throughout chorus.
e|--------------------------|
B|--------------------------|
G|---4-----4------2-----2---|
D|-2-----1------------------|
A|--------------4-----4-----|
E|--------------------------|

Nothing's gonna hurt you baby
As long as you're with me you'll be just fine
Nothing's gonna hurt you baby
Nothing's gonna take you from my side

Verse 2:

E B F#m A

When we laugh into the microphone and sing
With our sunglasses on to our favorite songs

When we're laughing in the microphone and singing
With our sunglasses on to our favorite songs

|------------------------------------------------|

I usually end up playing the chorus one more time, and then fading out with the intro. 
Добавлено: 07.06.2016
Вам также может быть интересно:
Другие материалы по этой песне:
  • Аккорды и текст

Страница создана 07.06.2016
http://primanota.ru/cigarettes-after-sex/nothings-gonna-hurt-you-baby-chords.htm
Привет, Гость.
Предлагаем пройти революционный курс по гитаре.
Подарок от PrimaNota.Ru, забирай!