PrimaNota.ru - самый крупный в мире бесплатный архив песенных текстов, аккордов, табулатур и нот


Cienfue - Macho De Monte Suite - таба, видео

Регистрация Запомнить меня
Войти через:  Facebook Google Twitter Vk Yandex Mail.ru

Cienfue - Macho De Monte Suite - таба, видео

Печатать
Просмотров: 96
Artista: Cienfue
Canción: Macho de Monte Suite
Tab por: Jorvas 7/10/08

Q xopá gente!
Bueno este es mi tab de la super canción :D de el 100fuegos "Macho de Monte Suite" 
sugerencias y dejen sus comments, se les apreciará mucho sus ratings. Les debo el solo x ahi 
pongo cuando lo saque.

Intro:
e|----------------------------------------------------------------|
B|-----------------------------------------------10---------------|
G|---------------------9------9-------11------11----11------------|
D|------9------9--7-10---7-10----9-13----9-13----------13-9-------|
A|-7-10---7-10----------------------------------------------12-10-|
E|----------------------------------------------------------------|

e|-------------------------------------------|
B|-10---------------10-----------------------|
G|----11---------------11--------------------|
D|-------13-9-------------13-9---------------|
A|------------12-10------------12-10~~~~-----|
E|--------------------------------------11\--|

Rítmica:
e|-------|-------------|
B|-------|-------------|
G|-------|-------------|
D|-------|-4----4----4-|
A|-2-2-2-|-2----2----2-|
E|-0-0-0-|-------------|

Riff 1:
e|---------------------------------------------------|
B|---------------------------------------------------|
G|---------------------------------------2-----------|
D|-------------------------------1---4-----4-1-------|
A|---------2---0--0---3---0--2-----------------2-0---|
E|-0---3-------------------------------------------3-|

Riff 2:
e|---3-----3-----5-3--2-----5-5p2---2-------------|
B|-0---5-0---5-0----------0-------0---4-0---------|
G|----------------------------------------2-------|
D|------------------------------------------5-4-2-|
A|------------------------------------------------|
E|------------------------------------------------|

e|---------------|
B|---------------|
G|-2-------------|
D|---4-1---------|
A|-------2-0-----|
E|-----------3-0-|

Rítmica:
e|---|---|---|
B|---|---|---|
G|---|---|---|
D|-9-|-2-|-4-|
A|-7-|-0-|-2-|
E|---|---|---|

*Toca el Intro
*Toca el Riff 1
*Toca el Riff 2

Interlude:
e|---------------------------------------|
B|---------0-------1-----------0-------0-|
G|-----0--------2----------2--------2----| "Y si el fuego me quema..."
D|-2---------2---------1---------1-------|
A|---------------------------------------|
E|---------------------------------------|

e|---------------------------------------|
B|---------------------------------------|
G|---------0-------2-----------2-------2-| "Si en el agua te mojas..."
D|-----2--------2----------1--------1----|
A|-2---------2---------2---------2-------|
E|---------------------------------------|

e|-------------|
B|-------------|
G|-------------| "Y es que tu amor me duele..."
D|-4----4----4-|
A|-2----2----2-|
E|-------------|

e|---------------------------------|
B|---------------------------------|
G|-2-------------------------------|
D|---4-1---------------2-----4-----| "me duele en el corazón..."
A|-------2-0----2------0-----2-----|
E|-----------3--0------------------|

**Solo**

Rítmica:
e|---|---|---|
B|---|---|---|
G|---|---|---|
D|---|-2-|-4-|
A|-2-|-0-|-2-|
E|-0-|---|---|

Outro:
e|---------------------------------------------------|
B|---------------------------------------------------|
G|---------------------------------------2-----------|
D|-------------------------------1---4-----4-1-------|
A|---------2---0--0---3---0--2-----------------2-0---|
E|-0---3-------------------------------------------3-|

e|------------------------------------------0~-------|
B|------------------------------------------0~-------|
G|-2-----------2----------------------------0~-------|
D|---4-1---------4-1------------------------2~-------|
A|-------2-0---------2-0--------------------2~-------|
E|-----------3-----------3~----/11~---------0~-------|

*FIN*

Comenten y den su rating al tab!

Apoyen lo nacional.

Cienfue is an indie artist with 3 launched albums so far.

cienfue.com
Добавлено: 31.05.2012
Другие материалы по этой песне:
  • Аккорды и текст

Страница создана 31.05.2012
http://primanota.ru/cienfue/macho-de-monte-suite-chords.htm
Привет, Гость.
Предлагаем пройти революционный курс по гитаре.
Подарок от PrimaNota.Ru, забирай!