PrimaNota.ru - самый крупный в мире бесплатный архив песенных текстов, аккордов, табулатур и нот


Cibo Matto - Deja Vu - бас-таба, видео

Регистрация Запомнить меня
Войти через:  Facebook Google Twitter Vk Yandex Mail.ru

Cibo Matto - Deja Vu - бас-таба, видео

Печатать
Просмотров: 55
-------------------------------------------------------------------------------
                             Deja Vu - Cibo Matto
-------------------------------------------------------------------------------
Tabbed by: nunchuckbass

Tuning: Drop D (optional, though highly recommended CAPO 1ST FRET)


INTRO/VERSE 1:
G|----------6--8--------------6--8----|
D|------------------------------------|
A|------------------------------------|     Using a capo, pluck open string
D|-1--------1--------1--------1-------| <-- with thumb.

CHORUS:
G|-----------------------------------------|
D|-----------------------------------------|
A|--12--------10--------12---------10------|
D|-----------------------------------------|

VERSE 1.

CHORUS.

VERSE 2:
G|--------------------------------------------|
D|--------------------------------------------|
A|-------6-4-6----1--4---------6-4-6----1--4--|
D|--1---------------------1-------------------|

VERSE 2B: Is it real, or is it dream...
G|---------------------------------------------------------------------------|
D|--------12-10-----10-8------------------------12-10-----10-8---------------|
A|--(1)10---------8--------1-1---1-1-----(1)10---------8--------1-1---1-1----|
D|-----------------------------------3------------------------------------3--|

G|--------------------------------------------|
D|--------12-10-----10-8------12-10-----------|
A|--(1)10---------8--------10---------8----1--|
D|--------------------------------------------|

VERSE 2.

VERSE 2B. x2

VERSE 2.

CHORUS(OUTRO).

-------------------------------------------------------------------------------

| /  slide up
| \  slide down
| h  hammer-on
| p  pull-off
| ~  vibrato
| +  harmonic
| x  Mute note
===============================================================================
Добавлено: 01.12.2015
Другие материалы по этой песне:
  • Аккорды и текст

Страница создана 01.12.2015
http://primanota.ru/cibo-matto/deja-vu-chords.htm
Привет, Гость.
Предлагаем пройти революционный курс по гитаре.
Подарок от PrimaNota.Ru, забирай!