PrimaNota.ru - самый крупный в мире бесплатный архив песенных текстов, аккордов, табулатур и нот


Ciara - Thug Style - текст песни, таба, видео

Регистрация Запомнить меня
Войти через:  Facebook Google Twitter Vk Yandex Mail.ru

Ciara - Thug Style - текст песни, таба, видео

Печатать
Просмотров: 101
E---------7----7-----------2-------0----0-------2-----------|
B---------7----7-----------2-------0----0-------2-----------|
G---------7----7-----------2-------0----0-------2-----------|
D---------7----7-----------2-------0----0-------2-----------|
A---------9----9-----------4-------2----2-------4-----------|
E-----------------------------------------------------------|



E---------7----7-----------2-------0----0------2----2-------|
B---------7----7-----------2-------0----0------2----2-------|
G---------7----7-----------2-------0----0------2----2-------|
D---------7----7-----------2-------0----0------2----2-------|
A---------9----9-----------4-------2----2------4----4-------|
E-----------------------------------------------------------|

repeat throughout the whole song
Добавлено: 13.12.2015
Другие материалы по этой песне:
  • Аккорды и текст

Страница создана 12.03.2012
http://primanota.ru/ciara/thug-style-chords.htm
Привет, Гость.
Предлагаем пройти революционный курс по гитаре.
Подарок от PrimaNota.Ru, забирай!