PrimaNota.ru - самый крупный в мире бесплатный архив песенных текстов, аккордов, табулатур и нот


Ciaj Sia Lis - Ntuj Es Ntuj Es - таба, видео

Регистрация Запомнить меня
Войти через:  Facebook Google Twitter Vk Yandex Mail.ru

Ciaj Sia Lis - Ntuj Es Ntuj Es - таба, видео

Печатать
Просмотров: 102
Chords: G, D, Em, Am

Intro:
       G      D      G        G        Em        D       G
e|-----3---------3h2-----3--------3--------0---------3--------3--|
B|-----3---------3-------3--------3--------0---------3--------3--|
G|---0---0------2---0--0---0----0---0----0---0-----2--0-----2--0-|
D|------------0----------------------------------0--------0------|
A|---------------------------------------------------------------|
E|-3-----------------3--------3--------0-----------------3------3|

And Then The Verse: Use the same tabs as above.
G, D, G, G, Em, D, G, G, G, Em, D, D, Em, Em, G, G.
Chorus:
D, D, Am, Am, G, G, G, G, D, D, Am, Am, G, G.

Tabs For  Am
e|-----0-----------------------------------|
B|-----1-----------------------------------|
G|---2-------------------------------------|
D|-----------------------------------------|
A|-0---------------------------------------|
E|-----------------------------------------|

That is about and Good Luck.
Добавлено: 30.07.2012
Другие материалы по этой песне:
  • Аккорды и текст

Страница создана 30.07.2012
http://primanota.ru/ciaj-sia-lis/ntuj-es-ntuj-es-chords.htm
Привет, Гость.
Предлагаем пройти революционный курс по гитаре.
Подарок от PrimaNota.Ru, забирай!