PrimaNota.ru - самый крупный в мире бесплатный архив песенных текстов, аккордов, табулатур и нот


Church - Tristesse - текст песни, таба, видео

Регистрация Запомнить меня
Войти через:  Facebook Google Twitter Vk Yandex Mail.ru

Church - Tristesse - текст песни, таба, видео

Печатать
Просмотров: 147
e-2-2-2-2-2-2-3-2-2-2-2-2-3-2-2-2-2-2-3-2-3-2-3-2-|
B-3-3-3-3-3-3-3-3-3-3-3-3-3-3-3-3-3-3-3-3-3-3-3-3-|
G-2-2-2-2-2-2-2-2-2-2-2-2-2-2-2-2-2-2-2-2-2-2-2-2-|
D-------------------------------------------------|
A-------------------------------------------------|
E-------------------------------------------------|

Here in this desert beneath the sun and sky

e-2-2-2-2-2-2-3-2-2-2-2-2-3-2-2-2-2-2-3-2-3-2-3-2-|
B-3-3-3-3-3-3-3-3-3-3-3-3-3-3-3-3-3-3-3-3-3-3-3-3-|
G-2-2-2-2-2-2-2-2-2-2-2-2-2-2-2-2-2-2-2-2-2-2-2-2-|
D-------------------------------------------------|
A-------------------------------------------------|
E-------------------------------------------------|

Still troubled by the rumblings of a million distant cars

e-2-2-2-2-2-2-3-2-2-2-2-2-3-2-2-2-2-2-3-2-3-2-3-2-|
B-3-3-3-3-3-3-3-3-3-3-3-3-3-3-3-3-3-3-3-3-3-3-3-3-|
G-2-2-2-2-2-2-2-2-2-2-2-2-2-2-2-2-2-2-2-2-2-2-2-2-|
D-------------------------------------------------|
A-------------------------------------------------|
E-------------------------------------------------|

Please be good to me tonight let me find my way

e-2-2-2-2-2-2-3-2-2-2-2-2-3-2-2-2-2-2-3-2-3-2-3-2-|
B-3-3-3-3-3-3-3-3-3-3-3-3-3-3-3-3-3-3-3-3-3-3-3-3-|
G-2-2-2-2-2-2-2-2-2-2-2-2-2-2-2-2-2-2-2-2-2-2-2-2-|
D-------------------------------------------------|
A-------------------------------------------------|
E-------------------------------------------------|

The air has some command in it I cannot disobey

e-3-3-3-3-3-3-3-3-3-3-3-3-|
B-3-3-3-3-3-3-3-3-3-3-3-3-|
G-0-0-0-0-0-0-0-0-0-0-0-0-|
D-0-0-0-0-0-0-0-0-0-0-0-0-|
A-0-0-0-0-0-0-0-0-0-0-0-0-|
E-2-2-2-2-2-2-2-2-2-2-2-2-|

A gunfight in dodge city

e-3-3-3-3-3-3-3-3-3-3-3-3-|
B-3-3-3-3-3-3-3-3-3-3-3-3-|
G-0-0-0-0-0-0-0-0-0-0-0-0-|
D-0-0-0-0-0-0-0-0-0-0-0-0-|
A-0-0-0-0-0-0-0-0-0-0-0-0-|
E-3-3-3-3-3-3-3-3-3-3-3-3-|

A murder in Bombay

e-3-3-3-3-3-3-3-3-3-3-3-3-|
B-3-3-3-3-3-3-3-3-3-3-3-3-|
G-0-0-0-0-0-0-0-0-0-0-0-0-|
D-2-2-2-2-2-2-2-2-2-2-2-2-|
A-------------------------|
E-------------------------|

All these deeds and the worldly needs

e-3-3-3-3-3-3-3-3-3-3-3-3-|
B-3-3-3-3-3-3-3-3-3-3-3-3-|
G-0-0-0-0-0-0-0-0-0-0-0-0-|
D-0-0-0-0-0-0-0-0-0-0-0-0-|
A-0-0-0-0-0-0-0-0-0-0-0-0-|
E-3-3-3-3-3-3-3-3-3-3-3-3-|

I must shrug off today

e-0-0-0-0-0-0-0-0-2-2-2-2-2-2-3-2-|
B-1-1-1-1-0-0-0-0-3-3-3-3-3-3-3-3-|
G-2-2-2-2-0-0-0-0-2-2-2-2-2-2-2-2-|
D-3-3-3-3-0-0-0-0-----------------|
A---------2-2-2-2-----------------|
E---------0-0-0-0-----------------|

All my life spent searching for prowess

e-0-0-0-0-0-0-0-0-2-2-2-2-2-2-3-2-2-2-2-2-3-2-2-2-2-2-3-2-3-2-3-2-|
B-1-1-1-1-0-0-0-0-3-3-3-3-3-3-3-3-3-3-3-3-3-3-3-3-3-3-3-3-3-3-3-3-|
G-2-2-2-2-0-0-0-0-2-2-2-2-2-2-2-2-2-2-2-2-2-2-2-2-2-2-2-2-2-2-2-2-|
D-3-3-3-3-0-0-0-0-------------------------------------------------|
A---------2-2-2-2-------------------------------------------------|
E---------0-0-0-0-------------------------------------------------|

Left me lying here with you tristesse

e-2-2-2-2-2-2-3-2-2-2-2-2-3-2-2-2-2-2-3-2-3-2-3-2-|
B-3-3-3-3-3-3-3-3-3-3-3-3-3-3-3-3-3-3-3-3-3-3-3-3-|
G-2-2-2-2-2-2-2-2-2-2-2-2-2-2-2-2-2-2-2-2-2-2-2-2-|
D-------------------------------------------------|
A-------------------------------------------------|
E-------------------------------------------------|

I was working in an orchard that grew the strangest fruit

e-2-2-2-2-2-2-3-2-2-2-2-2-3-2-2-2-2-2-3-2-3-2-3-2-|
B-3-3-3-3-3-3-3-3-3-3-3-3-3-3-3-3-3-3-3-3-3-3-3-3-|
G-2-2-2-2-2-2-2-2-2-2-2-2-2-2-2-2-2-2-2-2-2-2-2-2-|
D-------------------------------------------------|
A-------------------------------------------------|
E-------------------------------------------------|

It wasn't mother nature that made those trees take root

e-3-3-3-3-3-3-3-3-3-3-3-3-|
B-3-3-3-3-3-3-3-3-3-3-3-3-|
G-0-0-0-0-0-0-0-0-0-0-0-0-|
D-0-0-0-0-0-0-0-0-0-0-0-0-|
A-0-0-0-0-0-0-0-0-0-0-0-0-|
E-2-2-2-2-2-2-2-2-2-2-2-2-|

The children cannot hear you

e-3-3-3-3-3-3-3-3-3-3-3-3-|
B-3-3-3-3-3-3-3-3-3-3-3-3-|
G-0-0-0-0-0-0-0-0-0-0-0-0-|
D-0-0-0-0-0-0-0-0-0-0-0-0-|
A-0-0-0-0-0-0-0-0-0-0-0-0-|
E-3-3-3-3-3-3-3-3-3-3-3-3-|

They only want your loot

e-3-3-3-3-3-3-3-3-3-3-3-3-|
B-3-3-3-3-3-3-3-3-3-3-3-3-|
G-0-0-0-0-0-0-0-0-0-0-0-0-|
D-2-2-2-2-2-2-2-2-2-2-2-2-|
A-------------------------|
E-------------------------|

You hold on to their essence

e-3-3-3-3-3-3-3-3-3-3-3-3-|
B-3-3-3-3-3-3-3-3-3-3-3-3-|
G-0-0-0-0-0-0-0-0-0-0-0-0-|
D-0-0-0-0-0-0-0-0-0-0-0-0-|
A-0-0-0-0-0-0-0-0-0-0-0-0-|
E-3-3-3-3-3-3-3-3-3-3-3-3-|

Like a parachute

e-0-0-0-0-0-0-0-0-2-2-2-2-2-2-3-2-|
B-1-1-1-1-0-0-0-0-3-3-3-3-3-3-3-3-|
G-2-2-2-2-0-0-0-0-2-2-2-2-2-2-2-2-|
D-3-3-3-3-0-0-0-0-----------------|
A---------2-2-2-2-----------------|
E---------0-0-0-0-----------------|

They never believed you were in distress


e-0-0-0-0-0-0-0-0-2-2-2-2-2-2-3-2-2-2-2-2-3-2-2-2-2-2-3-2-3-2-3-2-|
B-1-1-1-1-0-0-0-0-3-3-3-3-3-3-3-3-3-3-3-3-3-3-3-3-3-3-3-3-3-3-3-3-|
G-2-2-2-2-0-0-0-0-2-2-2-2-2-2-2-2-2-2-2-2-2-2-2-2-2-2-2-2-2-2-2-2-|
D-3-3-3-3-0-0-0-0-------------------------------------------------|
A---------2-2-2-2-------------------------------------------------|
E---------0-0-0-0-------------------------------------------------|

Now you've gone and left them with tristesse

e-3-3-3-3-3-3-3-3-3-3-3-3-|
B-3-3-3-3-3-3-3-3-3-3-3-3-|
G-0-0-0-0-0-0-0-0-0-0-0-0-|
D-0-0-0-0-0-0-0-0-0-0-0-0-|
A-0-0-0-0-0-0-0-0-0-0-0-0-|
E-2-2-2-2-2-2-2-2-2-2-2-2-|

Oh...


e-3-3-3-3-3-3-3-3-3-3-3-3-|
B-3-3-3-3-3-3-3-3-3-3-3-3-|
G-0-0-0-0-0-0-0-0-0-0-0-0-|
D-0-0-0-0-0-0-0-0-0-0-0-0-|
A-0-0-0-0-0-0-0-0-0-0-0-0-|
E-3-3-3-3-3-3-3-3-3-3-3-3-|

Waters inflamed

e-3-3-3-3-3-3-3-3-3-3-3-3-|
B-3-3-3-3-3-3-3-3-3-3-3-3-|
G-0-0-0-0-0-0-0-0-0-0-0-0-|
D-2-2-2-2-2-2-2-2-2-2-2-2-|
A-------------------------|
E-------------------------|

Ah...


e-3-3-3-3-3-3-3-3-3-3-3-3-|
B-3-3-3-3-3-3-3-3-3-3-3-3-|
G-0-0-0-0-0-0-0-0-0-0-0-0-|
D-0-0-0-0-0-0-0-0-0-0-0-0-|
A-0-0-0-0-0-0-0-0-0-0-0-0-|
E-3-3-3-3-3-3-3-3-3-3-3-3-|

Fires burning out

e-3-3-3-3-3-3-3-3-3-3-3-3-|
B-3-3-3-3-3-3-3-3-3-3-3-3-|
G-0-0-0-0-0-0-0-0-0-0-0-0-|
D-0-0-0-0-0-0-0-0-0-0-0-0-|
A-0-0-0-0-0-0-0-0-0-0-0-0-|
E-2-2-2-2-2-2-2-2-2-2-2-2-|

Ah...

e-3-3-3-3-3-3-3-3-3-3-3-3-|
B-3-3-3-3-3-3-3-3-3-3-3-3-|
G-0-0-0-0-0-0-0-0-0-0-0-0-|
D-0-0-0-0-0-0-0-0-0-0-0-0-|
A-0-0-0-0-0-0-0-0-0-0-0-0-|
E-3-3-3-3-3-3-3-3-3-3-3-3-|

Ice melting down


e-3-3-3-3-3-3-3-3-3-3-3-3-|
B-3-3-3-3-3-3-3-3-3-3-3-3-|
G-0-0-0-0-0-0-0-0-0-0-0-0-|
D-2-2-2-2-2-2-2-2-2-2-2-2-|
A-------------------------|
E-------------------------|

Ah...

e-3-3-3-3-3-3-3-3-3-3-3-3-|
B-3-3-3-3-3-3-3-3-3-3-3-3-|
G-0-0-0-0-0-0-0-0-0-0-0-0-|
D-0-0-0-0-0-0-0-0-0-0-0-0-|
A-0-0-0-0-0-0-0-0-0-0-0-0-|
E-3-3-3-3-3-3-3-3-3-3-3-3-|

Fires burnt out

e-3-3-3-3-3-3-3-3-3-3-3-3-3-3-3-3-3-3-3-3-3-3-3-3-|
B-3-3-3-3-3-3-3-3-3-3-3-3-3-3-3-3-3-3-3-3-3-3-3-3-|
G-0-0-0-0-0-0-0-0-0-0-0-0-0-0-0-0-0-0-0-0-0-0-0-0-|
D-0-0-0-0-0-0-0-0-0-0-0-0-0-0-0-0-0-0-0-0-0-0-0-0-|
A-0-0-0-0-0-0-0-0-0-0-0-0-0-0-0-0-0-0-0-0-0-0-0-0-|
E-2-2-2-2-2-2-2-2-2-2-2-2-3-3-3-3-3-3-3-3-3-3-3-3-|

A hotel suite in a rich man's town

e-3-3-3-3-3-3-3-3-3-3-3-3-3-3-3-3-3-3-3-3-3-3-3-3-|
B-3-3-3-3-3-3-3-3-3-3-3-3-3-3-3-3-3-3-3-3-3-3-3-3-|
G-0-0-0-0-0-0-0-0-0-0-0-0-0-0-0-0-0-0-0-0-0-0-0-0-|
D-2-2-2-2-2-2-2-2-2-2-2-2-0-0-0-0-0-0-0-0-0-0-0-0-|
A-------------------------0-0-0-0-0-0-0-0-0-0-0-0-|
E-------------------------3-3-3-3-3-3-3-3-3-3-3-3-|

A hut in Botany Bay


e-3-3-3-3-3-3-3-3-3-3-3-3-3-3-3-3-3-3-3-3-3-3-3-3-|
B-3-3-3-3-3-3-3-3-3-3-3-3-3-3-3-3-3-3-3-3-3-3-3-3-|
G-0-0-0-0-0-0-0-0-0-0-0-0-0-0-0-0-0-0-0-0-0-0-0-0-|
D-0-0-0-0-0-0-0-0-0-0-0-0-0-0-0-0-0-0-0-0-0-0-0-0-|
A-0-0-0-0-0-0-0-0-0-0-0-0-0-0-0-0-0-0-0-0-0-0-0-0-|
E-2-2-2-2-2-2-2-2-2-2-2-2-3-3-3-3-3-3-3-3-3-3-3-3-|

A prisoner by my own device

e-3-3-3-3-3-3-3-3-3-3-3-3-3-3-3-3-3-3-3-3-3-3-3-3-|
B-3-3-3-3-3-3-3-3-3-3-3-3-3-3-3-3-3-3-3-3-3-3-3-3-|
G-0-0-0-0-0-0-0-0-0-0-0-0-0-0-0-0-0-0-0-0-0-0-0-0-|
D-2-2-2-2-2-2-2-2-2-2-2-2-0-0-0-0-0-0-0-0-0-0-0-0-|
A-------------------------0-0-0-0-0-0-0-0-0-0-0-0-|
E-------------------------3-3-3-3-3-3-3-3-3-3-3-3-|

A mountain in my way

e-0-0-0-0-0-0-0-0-2-2-2-2-2-2-3-2-|
B-1-1-1-1-0-0-0-0-3-3-3-3-3-3-3-3-|
G-2-2-2-2-0-0-0-0-2-2-2-2-2-2-2-2-|
D-3-3-3-3-0-0-0-0-----------------|
A---------2-2-2-2-----------------|
E---------0-0-0-0-----------------|

I'm gonna have to alter my address

e-0-0-0-0-0-0-0-0-2-2-2-2-2-2-3-2-|
B-1-1-1-1-0-0-0-0-3-3-3-3-3-3-3-3-|
G-2-2-2-2-0-0-0-0-2-2-2-2-2-2-2-2-|
D-3-3-3-3-0-0-0-0-----------------|
A---------2-2-2-2-----------------|
E---------0-0-0-0-----------------|

Cause I can't stay much longer with tristesse

e-0-0-0-0-0-0-0-0-2-2-2-2-2-2-3-2-|
B-1-1-1-1-0-0-0-0-3-3-3-3-3-3-3-3-|
G-2-2-2-2-0-0-0-0-2-2-2-2-2-2-2-2-|
D-3-3-3-3-0-0-0-0-----------------|
A---------2-2-2-2-----------------|
E---------0-0-0-0-----------------|

And they call this carnival progress

e-0-0-0-0-0-0-0-0-2-2-2-2-2-2-3-2-|
B-1-1-1-1-0-0-0-0-3-3-3-3-3-3-3-3-|
G-2-2-2-2-0-0-0-0-2-2-2-2-2-2-2-2-|
D-3-3-3-3-0-0-0-0-----------------|
A---------2-2-2-2-----------------|
E---------0-0-0-0-----------------|

Invited by our queen tonight, tristesse
Добавлено: 29.07.2012
Другие материалы по этой песне:
  • Аккорды и текст

Страница создана 22.06.2012
http://primanota.ru/church/tristesse-chords.htm
Привет, Гость.
Предлагаем пройти революционный курс по гитаре.
Подарок от PrimaNota.Ru, забирай!